» » »

Bowling For Soup - High School Never Ends Tabs

Artists:  A B C D E F G H I J K L M N O P Q R S T U V W X Y Z # 

High School Never Ends Tabs

(ver. 1) Click to play this song!
Bowling For Soup
 Rating:
4/5 (4 votes)

 High School Never Ends lessons Tabs too difficult? Try these video lessons and learn fast
 
                High School Never Ends by Bowling For Soup

this is the new Bowling For Soup single, it might not be 100% correct but it'll start 
off

Tuning: Standard

Main Riff:
e|---------------------------------------------------------------------------|
B|---------------------------------------------------------------------------|
G|---------7-7-------7-7-----------------------------------------------------|
D|-7--7-7--7-7--7-7--7-7--7-7--2-2--7-7--------------------------------------|
A|-7--7-7--5-5--7-7--5-5--7-7--2-2--7-7--------------------------------------|
E|-5--5-5-------5-5-------5-5--0-0--5-5--------------------------------------|

Verse:
e|---------------------------------------------------------------------------|
B|---------------------------------------------------------------------------|
G|-------------------------------------------------7-7-7-7-7-7-7-7-----------|
D|-7-7-7-7-7-7-7-7-4-4-4-4-4-4-4-4-5-5-5-5-5-5-5-5-7-7-7-7-7-7-7-7-----------|
A|-7-7-7-7-7-7-7-7-4-4-4-4-4-4-4-4-5-5-5-5-5-5-5-5-5-5-5-5-5-5-5-5-----------|
E|-5-5-5-5-5-5-5-5-2-2-2-2-2-2-2-2-3-3-3-3-3-3-3-3---------------------------|
     P.M..........   .............   .............   .............

Chorus:
e|---------------------------------------------------------------------------|
B|---------------------------------------------------------------------------|
G|---------7-7-------7-7-----------------------(x2)--------------------------|
D|-7--7-7--7-7--7-7--7-7--7-7--2-2--7-7--------------------------------------|
A|-7--7-7--5-5--7-7--5-5--7-7--2-2--7-7--------------------------------------|
E|-5--5-5-------5-5-------5-5--0-0--5-5--------------------------------------|

e|---------------------------------------------------------------------------|
B|---------------------------------------------------------------------------|
G|-7-7-7-7-9-9-9-9-7-7-7-7-9-9-9-9-7-7-7-7-7-7-7-7-9-9-9-9-------------------|
D|-7-7-7-7-9-9-9-9-7-7-7-7-9-9-9-9-7-7-7-7-7-7-7-7-9-9-9-9-------------------|
A|-5-5-5-5-7-7-7-7-5-5-5-5-7-7-7-7-5-5-5-5-4-4-4-4-7-7-7-7-------------------|
E|---------------------------------------------------------------------------|

Bridge:
e|---------------------------------------------------------------------------|
B|---------------------------------------------------------------------------|
G|----2-2--------2-2-------(x3)----7-7-7-7-9-9-9-9---------------------------|
D|-2--2-2--2--2--2-2---------------7-7-7-7-9-9-9-9---------------------------|
A|-2--0-0--2--2--0-0---------------5-5-5-5-7-7-7-7---------------------------|
E|-0-------0--0--------------------------------------------------------------|

Solo:
e|---------------------------------------------------------------------------|
B|---------------------------------------------------------------------------|
G|-8-8-8-8-6-4-6----8-8-8-8-9-11-8----9-9-9-9-9-8-9-11-----------------------|
D|---------------------------------------------------------------------------|
A|-6-6-6-6-4-2-6----6-6-6-6-7-9--6----7-7-7-7-7-6-7-9------------------------|
E|---------------------------------------------------------------------------|

e|---------------------------------------------------------------------------|
B|---------------------------------------------------------------------------|
G|-13-13-13-13-13-13-13-13---------------------------------------------------|
D|---------------------------------------------------------------------------|
A|-11-11-11-11-11-11-11-11---------------------------------------------------|
E|---------------------------------------------------------------------------|

Final Chorus:
e|---------------------------------------------------------------------------|
B|---------------------------------------------------------------------------|
G|---------9-9-------9-9-----------------------(x2)--------------------------|
D|-9--9-9--9-9--9-9--9-9--9-9--4-4--9-9--------------------------------------|
A|-9--9-9--7-7--9-9--7-7--9-9--4-4--9-9--------------------------------------|
E|-7--7-7-------7-7-------7-7--2-2--7-7--------------------------------------|

e|---------------------------------------------------------------------------|
B|---------------------------------------------------------------------------|
G|-9-9-9-9-11-11-11-11-9-9-9-9-11-11-11-11-9-9-9-9-6-6-6-6-11-11-11-11-------|
D|-9-9-9-9-11-11-11-11-9-9-9-9-11-11-11-11-9-9-9-9-6-6-6-6-11-11-11-11-------|
A|-7-7-7-7-9--9--9--9--7-7-7-7-9--9--9--9--7-7-7-7-4-4-4-4-9--9--9--9--------|
E|---------------------------------------------------------------------------|

Ending:
e|---------------------------------------------------------------------------|
B|---------------------------------------------------------------------------|
G|---------9-9-------9-9-----------------------(x4)--------------------------|
D|-9--9-9--9-9--9-9--9-9--9-9--4-4--9-9--------------------------------------|
A|-9--9-9--7-7--9-9--7-7--9-9--4-4--9-9--------------------------------------|
E|-7--7-7-------7-7-------7-7--2-2--7-7--------------------------------------|


| /  slide up
| \  slide down
| h  hammer-on
| p  pull-off
| ~  vibrato
| +  harmonic
| x  Mute note
===============================================================================
            
Submit corrections


        High School Never Ends lessons Hard to play? Try these video lessons and learn fast High School Never Ends lessons
        
↑ Back to top | Tablatures and chords for acoustic guitar and electric guitar, ukulele, drums are parodies/interpretations of the original songs. You may use it for private study, scholarship, research or language learning purposes only