» » »

Bowling For Soup - High School Never Ends Tabs

Artists:  A B C D E F G H I J K L M N O P Q R S T U V W X Y Z # 

High School Never Ends Tabs

(ver. 2) Click to play this song!
Bowling For Soup
 Rating:
4/5 (4 votes)

 High School Never Ends lessons Tabs too difficult? Try these video lessons and learn fast
 
                This is the new song by Bowling for Soup.  This is also my first tab.
I am sure that the song is 99% correct.  I know that the solo (bridge 2)
is 100% correct.  The song is actually very easy to play.
Please rate this tab.

Intro
        (2x)
/--------------------\-|
e]---------------------|
B]---------------------|
G]---------------------|
D]---x--x-x--x-x--x-x--|
A]---x--x-x--x-x--x-x--|
E]---x--x-x--x-x--x-x--|
                    (2x)
/----------------------------------------\-|
e]-----------------------------------------|
B]-----------------------------------------|
G]-----------7-7-------7-7-----------------|
D]---7--7-7--7-7--7-7--7-7--7-7--2-2--7-7--|
A]---7--7-7--5-5--7-7--5-5--7-7--2-2--7-7--|
E]---5--5-5-------5-5-------5-5--0-0--5-5--|

Verse 1 (2x)
e]-------------------------------------|
B]-------------------------------------|
G]-------------------------------------|
D]---7777777777777777-4444444444444444-|
A]---7777777777777777-4444444444444444-|
E]---5555555555555555-2222222222222222-|
(pm)  ...............  ...............
e]-------------------------------------|
B]-------------------------------------|
G]--------------------7777777777777777-|
D]---5555555555555555-7777777777777777-|
A]---5555555555555555-5555555555555555-|
E]---3333333333333333------------------|
(pm)  ...............  ...............

Chorus 1
                    (2x)
/----------------------------------------\-|
e]-----------------------------------------|
B]-----------------------------------------|
G]-----------7-7-------7-7-----------------|
D]---7--7-7--7-7--7-7--7-7--7-7--2-2--7-7--|
A]---7--7-7--5-5--7-7--5-5--7-7--2-2--7-7--|
E]---5--5-5-------5-5-------5-5--0-0--5-5--|

e]--------------------------------------------------------------------|
B]--------------------------------------------------------------------|
G]---77777777-99999999-77777777-99999999-77777777-77777777-99999999-9-|
D]---77777777-99999999-77777777-99999999-77777777-77777777-99999999-9-|
A]---55555555-77777777-55555555-77777777-55555555-44444444-77777777-7-|
E]--------------------------------------------------------------------|

Post-Chorus 1
                  (2x)
/----------------------------------------\-|
e]-----------------------------------------|
B]-----------------------------------------|
G]-----------7-7-------7-7-----------------|
D]---7--7-7--7-7--7-7--7-7--7-7--2-2--7-7--|
A]---7--7-7--5-5--7-7--5-5--7-7--2-2--7-7--|
E]---5--5-5-------5-5-------5-5--0-0--5-5--|

Verse 2 (2x)
e]-------------------------------------|
B]-------------------------------------|
G]-------------------------------------|
D]---7777777777777777-4444444444444444-|
A]---7777777777777777-4444444444444444-|
E]---5555555555555555-2222222222222222-|
(pm)  ...............  ...............
e]-------------------------------------|
B]-------------------------------------|
G]--------------------7777777777777777-|
D]---5555555555555555-7777777777777777-|
A]---5555555555555555-5555555555555555-|
E]---3333333333333333------------------|
(pm)  ...............  ...............

Bridge 1
          (3x)
/--------------------\---------------------|
e]-----------------------------------------|
B]-----------------------------------------|
G]------2-2-------2-2----77777777-99999999-|
D]---2--2-2--2-2--2-2----77777777-99999999-|
A]---2--0-0--2-2--0-0----55555555-77777777-|
E]---0-------0-0---------------------------|

Chorus 2
                (2x)
/----------------------------------------\-|
e]-----------------------------------------|
B]-----------------------------------------|
G]-----------7-7-------7-7-----------------|
D]---7--7-7--7-7--7-7--7-7--7-7--2-2--7-7--|
A]---7--7-7--5-5--7-7--5-5--7-7--2-2--7-7--|
E]---5--5-5-------5-5-------5-5--0-0--5-5--|

e]--------------------------------------------------------------------|
B]--------------------------------------------------------------------|
G]---77777777-99999999-77777777-99999999-77777777-77777777-99999999-9-|
D]---77777777-99999999-77777777-99999999-77777777-77777777-99999999-9-|
A]---55555555-77777777-55555555-77777777-55555555-44444444-77777777-7-|
E]--------------------------------------------------------------------|

Post-Chorus 2
e]----------------------------------------|
B]----------------------------------------|
G]-----------7-7-------7-7----------------|
D]---7--7-7--7-7--7-7--7-7--7-7--2-2--7-7-|
A]---7--7-7--5-5--7-7--5-5--7-7--2-2--7-7-|
E]---5--5-5-------5-5-------5-5--0-0--5-5-|

Bridge 2
e]----------------------------------------------------------------|
B]----------------------------------------------------------------|
G]---88888888-6-4-8-88-8-8888888-9-11-8-88-9-9999999-8-9-11-11-11-|
D]----------------------------------------------------------------|
A]---66666666-4-2-6-66-6-6666666-7-9--6-66-7-7777777-6-7-9--9--9--|
E]----------------------------------------------------------------|

e]---------------------------------------------------|
B]---------------------------------------------------|
G]---13-13-13-13-13-13-13-13-13-13-13-13-13-13-13-13-|
D]---------------------------------------------------|
A]---11-11-11-11-11-11-11-11-11-11-11-11-11-11-11-11-|
E]---------------------------------------------------|

Chorus 3
                   (2x)
/-----------------------------------------\-|
e]------------------------------------------|
B]------------------------------------------|
G]-----------9-9-------9-9------------------|
D]---9--9-9--9-9--9-9--9-9--9-9--4-4--9-9---|
A]---9--9-9--7-7--9-9--7-7--9-9--4-4--9-9---|
E]---7--7-7-------7-7-------7-7--2-2--7-7---|

e]------------------------------------------------------|
B]------------------------------------------------------|
G]---99999999-11*-99999999-11*-99999999-99999999-11*-11-|
D]---99999999-11*-99999999-11*-99999999-99999999-11*-11-|
A]---77777777-9-*-77777777-9-*-77777777-66666666-9-*-9--|
E]------------------------------------------------------|
*chords written with * are repeated 8 times.  I can't write them out
because of problems with spacing

Outro
                (4x)
/-----------------------------------------\-|
e]------------------------------------------|
B]------------------------------------------|
G]-----------9-9-------9-9------------------|
D]---9--9-9--9-9--9-9--9-9--9-9--4-4--9-9---|
A]---9--9-9--7-7--9-9--7-7--9-9--4-4--9-9---|
E]---7--7-7-------7-7-------7-7--2-2--7-7---|
            
Submit corrections


        High School Never Ends lessons Hard to play? Try these video lessons and learn fast High School Never Ends lessons
        
↑ Back to top | Tablatures and chords for acoustic guitar and electric guitar, ukulele, drums are parodies/interpretations of the original songs. You may use it for private study, scholarship, research or language learning purposes only