Home » B » Boney M »

Boney M - Rasputin Tabs

Artists:  A B C D E F G H I J K L M N O P Q R S T U V W X Y Z # 

Rasputin Tabs

(ver. 2) Click to play this song!
Boney M
[Intro]
 
e|------------------|
B|------------------|
G|------------------|
D|---------3--------|  x2
A|0-3-5-5-5-5\3/5---|
E|------------------|
 
e|-----------------------|
B|-----------------------|
G|-----------------------|
D|-----------------------|  x2
A|5-5-5-3-3--3-3-3-1-1---|
E|-----------------------|
 
 
[Main Part]
 
e|----------------------------------------|
B|----------------------------------------|
G|----------------------------------------|
D|4-4-4--4/5/7\5\4-4----------------------|
A|------------------4-5-7-7-7-4-5-7-7\5\4-|
E|----------------------------------------|
 
e|---------------------------------------|
B|---------------------------------------|
G|---------------------------------------|
D|-------------4/5\4---------------------|
A|-2---2-/4-5-7-----7-5-2-4-4-4-2-1-2-4--|
E|---------------------------------------|
 
e|---------------------------------------|
B|---------------------------------------|
G|---------------------------------------|
D|---------4/5\4-------------------------|
A|-2-/4-5-7-----7-5-2-4/5\4-2-0-0-2-2----|
E|-----------------------------2---------|
 
 
[Refrain]
 
  Ra-ra-rasputin...
e|---------------------------------------|
B|---------------------------------------|
G|---------------------------------------|
D|9-9-7-7-7-6-6-6-6-4-2-1--7-7-7-6-6-6---|
A|---------------------------------------|
E|---------------------------------------|
 
e|-----------|
B|-----------|
G|-----------|
D|-4-4\2-4---|  x2
A|-----------|
E|-----------|
 
C
            
Submit corrections

↑ Back to top | Tablatures and chords for acoustic guitar and electric guitar, ukulele, drums are parodies/interpretations of the original songs. You may use it for private study, scholarship, research or language learning purposes only