Home » B » Boney M »

Boney M - Rivers Of Babylon Bass

Artists:  A B C D E F G H I J K L M N O P Q R S T U V W X Y Z # 

Rivers Of Babylon Bass

(ver. 1) Click to play this song!
Boney M
First Part

G|------------------------------------------------  |
D|------------------------------------------------  |
A|----0-0-4-4-5-7---0-0-4-4-5-7-------------------  |
E|------------------------------------------------  |
                                                    |> Repeat through Song
G|------------------7/9-5/7-3/5-1/5---------------  |
D|----------------------------------7-9-7-9-7-5---  |
A|----7-7-9-9-7-5---------------------------------  |
E|------------------------------------------------  |

To contact me about this tab please email
            
Submit corrections

↑ Back to top | Tablatures and chords for acoustic guitar and electric guitar, ukulele, drums are parodies/interpretations of the original songs. You may use it for private study, scholarship, research or language learning purposes only