» » »

Boney M - Rasputin Bass

Artists:  A B C D E F G H I J K L M N O P Q R S T U V W X Y Z # 

Rasputin Bass

(ver. 1) Click to play this song!
Boney M
 Rating:
4/5 (4 votes)

 Rasputin lessons Tabs too difficult? Try these video lessons and learn fast
 
                Boney M
Bass Tab


Bass comes in [00:11]

Intro

|-----------------------------------------------------------|      *() Second time only
|-----------------------------------------------------------|          then rest for 4 bars
|-2--2--2----0-2--2--2--4-5-7--7--7--4-5-7--5-4-2-------(2)-|
|----------2---------------------------------------(2)------| x2

|-------------------------------|
|-------------------------------|
|-2-2-2-0--0-0-0----------------|
|----------------3-3-3-2--2-2-2-| x2

|--------------4-4-4---------|
|--------------------4----4--|
|-2-2--2--2-2-----------5----|
|----------------------------| x2

Verse

|-----------------------------------------------------|
|--------------------------------------------------0--|
|-2--2--2---2--2--2--4-5-7--7--7--4-5-7--5-4-2---0----|
|----------------------------------------------2------| x2

|-4---4--4---2-4---4--4---2------------------------------|
|----------4------------4---2---2--2-----4-4-6-6-8-8-4-4-|
|------------------------------------2-5-----------------|
|--------------------------------------------------------|

|-4---4--4---2-4---4--4---2------------------------------|
|----------4------------4---2---2--2---------------------|
|-------------------------------------2-x-4-x-5-x-7(7)---|
|--------------------------------------------------------|

Chorus

|----------------------4---4-3-2---2-------4----4----2-4--|
|--------0-0-0--2-2-2----4-----------2---4---4-----4------|
|-2-2-2---------------------------------------------------|
|---------------------------------------------------------|

|-------------------4---4-3-2---2-------4---2-4--4---2-4---2-4--|
|-------0--0--2--2----4-----------2---2---4--------4-----4------|
|-2--2----------------------------------------------------------|
|---------------------------------------------------------------|

Intrumental

|--------------4-4-4---------|
|--------------------4----4--|
|-2-2--2--2-2-----------5----|
|----------------------------| x2

|--------------------------------------------------4--|
|-----------------------------------------------------|
|-2--2--2----0-2--2--2--4-5-7--7--7--4-5-7--5-4-2-----|
|----------2------------------------------------------| 

Repeat Verse and Chorus

Break

|-----------------------------------------------------------------------|
|-----------------------------------------------------------------------|
|-----------------------------------------------------------------------|
|-7--------5--------3----5----7--------7--------9--------7----5----7----|

Intrumental 2

|--------------4-4-4---------|
|--------------------4----4--|
|-2-2--2--2-2-----------5----|
|----------------------------| x4

|--------------------------------------------------4--|
|-----------------------------------------------------|
|-2--2--2----0-2--2--2--4-5-7--7--7--4-5-7--5-4-2-----|
|----------2------------------------------------------| 

Repeat Verse, then Chorus twice

(There's room for a bit of variation in the choruses).
            
Submit corrections


        Rasputin lessons Hard to play? Try these video lessons and learn fast Rasputin lessons
        
↑ Back to top | Tablatures and chords for acoustic guitar and electric guitar, ukulele, drums are parodies/interpretations of the original songs. You may use it for private study, scholarship, research or language learning purposes only