Home » B » Boney M »

Boney M - Daddy Cool Bass

Artists:  A B C D E F G H I J K L M N O P Q R S T U V W X Y Z # 

Daddy Cool Bass

(ver. 2) Click to play this song!
Boney M
The whole song is played in straight eights exept break one.

Intro x4.
G|-----0----------
D|22222-4200000-01
A|-------------2--|
E|----------------|
Then play the verse and ref riff x14:
G|-----0------------------------|
D|22222-4200000-0-------0122222-|(hold and start from the begining)
A|-------------2-3222222--------|
E|------------------------------|
Break just once!
G|-------------------------|
D|2-0----------------------|
A|----3---3---2---44444444-|
E|-------------------------|
Then the verse again x2
G|-----0------------------------|
D|22222-4200000-0-------0122222-|(hold and start from the begining)
A|-------------2-3222222--------|
E|------------------------------|
Break 2 (the intro) x4
G|-----0----------
D|22222-4200000-01
A|-------------2--|
E|----------------|
And last the vers riff x4
G|-----0------------------------|
D|22222-4200000-0-------0122222-|(hold and start from the begining)
A|-------------2-3222222--------|
E|------------------------------|


Listen to the song when you lern to play this, much easier.

Good day and best of luck
// Nahas
            
Submit corrections

↑ Back to top | Tablatures and chords for acoustic guitar and electric guitar, ukulele, drums are parodies/interpretations of the original songs. You may use it for private study, scholarship, research or language learning purposes only