Home » B » Bodyjar »

Bodyjar - Hazy Shade Of Winter Tabs

Artists:  A B C D E F G H I J K L M N O P Q R S T U V W X Y Z # 

Hazy Shade Of Winter Tabs

(ver. 3) Click to play this song!
Bodyjar
Here you go the good old favourite Hazy Shade of Winter by Bodyjar

b = bend to note
r = release to note
~ = vibrato
|__PM = palm mute

MAIN RIFF              ~~                         ~~
e|----------------------------------------------------------------------------|
B|----------------------------------------------------------------------------|
G|-------------------8-6----------3b4r3---------5-3-5-------------------------|
D|-----6-8b9r8-6---8-----8------6------------5--------------------------------|
A|-8-8-----------6----------4-4---------4-3-----------------------------------|
E|----------------------------------------------------------------------------|

INTRO GUITAR 1=Main riff

INTRO GUITAR 2= main riff once then this while other guitar continues main riff
e|---------------------------------------------------------------------------|
B|---------------------------------------------------------------------------|
G|-10--8--6--5---------------------------------------------------------------|
D|-10--8--6--5---------------------------------------------------------------|
A|-8---6--4--3---------------------------------------------------------------|
E|---------------------------------------------------------------------------|

VERSE (both guitars) fisrt 3 do 4 times, last bit let ring
e|---------------------------------------------------------------------------|
B|---------------------------------------------------------------------------|
G|-10-10-10--8--8--8---6--6--6---5-------------------------------------------|
D|-10-10-10--8--8--8---6--6--6---5-------------------------------------------|
A|-8--8--8---6--6--6---4--4--4---3-------------------------------------------|
E|---------------------------------------------------------------------------|
  |__PM     |__PM     |__PM

CHORUS

GUITAR 1=main riff
GUITAR 2=somthing similar to before (not sure)

OUTRO

Guitar 1 and 2 each four times
e|---------------------------------------------------------------------------|
B|---------------------------------------------------------------------------|
G|-10--8--6--5---------------------------------------------------------------|
D|-10--8--6--5---------------------------------------------------------------|
A|-8---6--4--3---------------------------------------------------------------|
E|---------------------------------------------------------------------------|

And thats it
easy as that
            
Submit corrections

↑ Back to top | Tablatures and chords for acoustic guitar and electric guitar, ukulele, drums are parodies/interpretations of the original songs. You may use it for private study, scholarship, research or language learning purposes only