Home » B » Bodyjar »

Bodyjar - Too Drumk To Drive Tabs

Artists:  A B C D E F G H I J K L M N O P Q R S T U V W X Y Z # 

Too Drumk To Drive Tabs

(ver. 1) Click to play this song!
Bodyjar



I think this tab sucks, but I want you to make a better 
one because the song rocks!!!


Intro guitar 1:

e|------------------------------------------------------------|
B|------------------------------------------------------------|
G|------------------------------------------------------------|(x6)
D|----8-8-8-10-10--10-10-8-8--8-8-6-6-8-8---------------------|
A|----8-8-8-10-10--10-10-8-8--8-8-6-6-8-8---------------------|
E|----6-6-6-8--8---8--8--6-6--6-6-4-4-6-6---------------------|



e|-------------------------------------------------------------------|
B|-------------------------------------------------------------------|
G|-------------------------------------------------------------------|
D|---88--8-8-8-8-8-8-8-----------------------------------------------|
A|---88--8-8-8-8-8-8-8-----------------------------------------------|
E|---66--6-6-6-6-6-6-6-----------------------------------------------|



Verse: (2x)
guitar 2: 
e|-------------------------------------------------------------------------|
B|-------------------------------------------171717171717171717171717------|
G|-------------------------------------------------------------------------|
D|----------------------12-12-12-14-14-14----------------------------------|
A|-------------------------------------------------------------------------|
E|-------------------------------------------------------------------------|
                 While this is played by the 2. guitar the 1. guitar plays something like this:

Guitar 1:
e|--------------------------------------------------|
B|--------------------------------------------------|
G|--------------------------------------------------|
D|----8-8--8-8-8-8-8-8-8-8-8------------------------|
A|----8-8--8-8-8-8-8-8-8-8-8------------------------|
E|----6-6--6-6-6-6-6-6-6-6-6------------------------|


Guitar 2 Bridge:
e|-------------------------------------|
B|-----------11------------------------|
G|---8-10-10---10-8--------------------|
D|-------------------------------------|
A|-------------------------------------|
E|-------------------------------------|



Intro again:
e|------------------------------------------------------------|
B|------------------------------------------------------------|
G|------------------------------------------------------------|(x2)
D|----8-8-8-10-10--10-10-8-8--8-8-6-6-8-8---------------------|
A|----8-8-8-10-10--10-10-8-8--8-8-6-6-8-8---------------------|
E|----6-6-6-8--8---8--8--6-6--6-6-4-4-6-6---------------------|




Bridge:
e|------------------------------------------------------------|
B|------------------------------------------------------------|
G|------------------------------------------------------------|
D|--6/8/15/13/8-----------------------------------------------|
A|------------------------------------------------------------|
E|------------------------------------------------------------|



Verse:
e|------------------------------------------------------------|
B|------------------------------------------------------------|
G|------------------------------------------------------------|
D|------------------------------------------------------------|
A|---8-8-8---10-10-10-10-10--6-6-8-8--------------------------|
E|---6-6-6---8--8--8--8--8---4-4-6-6--------------------------|
        “___________________________” p.m.




bridge like this:
e|------------------------------------------------------------|
B|------------------------------------------------------------|
G|------------------------------------------------------------|
D|---8-8-8-10-10-10--12-12-12-13-13-13------------------------|
A|---x-x-x—-x--x--x---x--x--x--x--x--x------------------------|
E|---6-6-6--8--8--8--10-10-10-11-11-11------------------------|
            
Submit corrections

↑ Back to top | Tablatures and chords for acoustic guitar and electric guitar, ukulele, drums are parodies/interpretations of the original songs. You may use it for private study, scholarship, research or language learning purposes only