Home » B » Bodyjar »

Bodyjar - Hazy Shade Of Winter Tabs

Artists:  A B C D E F G H I J K L M N O P Q R S T U V W X Y Z # 

Hazy Shade Of Winter Tabs

(ver. 2) Click to play this song!
Bodyjar
The other tabs for this song are wrong and hard to play fast so i've made this correct version for all those bodyjar fans.

x-palm muted
b-bend
r-release
()-semitones e.g bend 8th fret up two semitones so it sounds like fret 10. 

INTRO

E|------------------------------------------------------------|
B|------------------------------------------------------------|
G|----------------------8-6-----------------------------------|
D|------6-8b(10)r-6---6-----6------6--8b(10)r---------10-8-10-|
A|--8-8-------------6------------------------------10---------|
E|-----------------------------9-9-------------9-8------------|
  


VERSE
E|---------------------------------------------------------------|
B|---------------------------------------------------------------|
G|---------------------------------------------------------------|
D|--x--x-10---x--x-10---x--x-10---x--x-10---x-x-8--x-x-8--x-x-8--|
A|--x--x-10---x--x-10---x--x-10---x--x-10---x-x-8--x-x-8--x-x-8--|
E|--x--x--8---x--x--8---x--x--8---x--x--8---x-x-6--x-x-6--x-x-6--|
           Time,time,time,             see whats become of me,    

VERSE cont....
E|---------------------------------------|
B|---------------------------------------|
G|---------------------------------------|
D|-x-x-8--x-x-6--x-x-6--x-x-6--x-x-6--5--|
A|-x-x-8--x-x-6--x-x-6--x-x-6--x-x-6--5--|
E|-x-x-6--x-x-4--x-x-4--x-x-4--x-x-4--3--|
 while I look around,    for my possibilities



           I was so hard to please. 

CHORUS
E|------------------------------------------------------------|
B|------------------------------------------------------------|
G|----------------------8-6-----------------------------------|
D|------6-8b(10)r-6---6-----6------6--8b(10)r---------10-8-10-|
A|--8-8-------------6------------------------------10---------|
E|-----------------------------9-9-------------9-8------------|
  Look around,leaves are brown,and the sky,is a hazy shade of winter




OUTRO(fast)
E|----------------------------------------------------|
B|----------------------------------------------------|
G|----------------------------------------------------|
D|-10-x-x-10-x-x-10-x-x-10---x-x-8-x-x-8-x-x-8-x-x-8--|
A|-10-x-x-10-x-x-10-x-x-10---x-x-8-x-x-8-x-x-8-x-x-8--|
E|--8-x-x--8-x-x--8-x-x--8---x-x-6-x-x-6-x-x-6-x-x-6--|





OUTRO(fast) cont....
E|------------------------------------------------------|
B|------------------------------------------------------|
G|------------------------------------------------------|
D|-x-x-6-x-x-6-x-x-6-x-x-6---x-x-4-x-x-4-x-x-4-x-x-4--5-|
A|-x-x-6-x-x-6-x-x-6-x-x-6---x-x-4-x-x-4-x-x-4-x-x-4--5-|
E|-x-x-4-x-x-4-x-x-4-x-x-4---x-x-2-x-x-2-x-x-2-x-x-2--3-|

This song rocks so enjoy...
            
Submit corrections

↑ Back to top | Tablatures and chords for acoustic guitar and electric guitar, ukulele, drums are parodies/interpretations of the original songs. You may use it for private study, scholarship, research or language learning purposes only