Home » B » Blues »

Blues - 12 Bar Blues Bass

Artists:  A B C D E F G H I J K L M N O P Q R S T U V W X Y Z # 

12 Bar Blues Bass
Version #3
Blues


Copy URL
G|----------------|
D|----------------|
A|-----2-4-5-4-2--|
E|-0-4-----------4|  x2
This is the best easy blues for the bass. Very Easy. Feel free to iprovise
G|----------------|
D|-----2-4-5-4-2--|
A|-0-4-----------4|
E|----------------|  x2

G|----------------|
D|----------------|
A|-----2-4-5-4-2--|
E|-0-4-----------4|  x1

G|----------------|
D|----------------|
A|-----0-1-2-0----|
E|-2-4---------4-2|  x1

G|----------------|
D|----------------|
A|-----0-1-2------| hold for 4 beats
E|-0-4------------|                   x1
            
Submit corrections

↑ Back to top | Tablatures and chords for acoustic guitar and electric guitar, ukulele, drums are parodies/interpretations of the original songs. You may use it for private study, scholarship, research or language learning purposes only