Home » B » Blues »

Blues - 12 Bar Blues Bass

Artists:  A B C D E F G H I J K L M N O P Q R S T U V W X Y Z # 

12 Bar Blues Bass
Version #1
Blues


Copy URL
You can play this pritty much anywere on your E string.
And you can jam so easy with this smooth cool base line.
Its a must know.

E)---5-----------------------5----------------------|
A)------4--7-----------7--4----4--7------------7--4-|
D)------------4--5--4-----------------4--5--4-------|
G)--------------------------------------------------|

E)--------------------------|
A)---5----------------------|
D)------4--7-----------7--4-|
G)------------4--5--4-------|

E)---5-----------------------|
A)------4--7-----------7--4--|
D)------------4--5--4--------|
G)---------------------------|

E)---------------------------|
A)---7-----------5-----------|
D)------6--9--------4--7-----|
G)------------6-----------4--|

E)---5--------------------7--5--|
A)------4--5--6--7--5--4--------|
D)------------------------------|
G)------------------------------|

Thx alot hope you can learn this nice and easy.


SOZ if your used to the strings other way round
but hope get along with it OK
            
Submit corrections

↑ Back to top | Tablatures and chords for acoustic guitar and electric guitar, ukulele, drums are parodies/interpretations of the original songs. You may use it for private study, scholarship, research or language learning purposes only