» » »

Bloc Party - This Modern Love Bass

Artists:  A B C D E F G H I J K L M N O P Q R S T U V W X Y Z # 

This Modern Love Bass

(ver. 2) Click to play this song!
Bloc Party
 Rating:
4/5 (4 votes)

 This Modern Love lessons Tabs too difficult? Try these video lessons and learn fast
 
                ----------------------------------------------------------------------------
			     This Modern Love - Bloc Party
----------------------------------------------------------------------------


0:00 - 1:24
G|-5-5-5-5-5-5-4-4-9-9-9-9-10-10-10-9-5-5-5-5-5-5-4-4-2-2-2-2--|
D|-------------------------------------------------------------|
A|-------------------------------------------------------------|
E|-------------------------------------------------------------|

1:25 - 1:34
G|------------------------------------------------|
D|------------------------------------------------|
A|-3-3-3-3-3-3------3-3-3-3-5-5-5-5---------------|
E|-------------3-0--------------------------------|

1:35 - 1:45

G|----------------------------------------------|
D|----------------------------------------------|
A|-333333333333------33333333-55555555----------|
E|-------------330------------------------------|

1:46 - 2:17

G|-------------------------------------------|
D|-------------------------------------------|
A|-3-3-3-3-3-3-3-----------------------------|
E|---------------010-5-5-5-5-5-5-5-010-------| (it's 0-1-0, not 0-10)

2:18 - 2:37

G|-------------------------------------|
D|-------------------------------------|
A|-3333333333333-----------------------|
E|---------------010-5555555-010-------| (it's 0-1-0, not 0-10)

2:38 - 3:18

G|--------------(12-12, not 1-2-1-2 & so on)-----------------------------
D|-----------------------------------------------------------------------
A|121212121212121212121212-10101010--------------------------------------
E|----------------------------------1212121212121212-1313131313131313----

G|---------------------------------------------------------------|
D|-------------------------9999-1010101010101010-----------------|
A|121212121212121212121212---------------------------------------|
E|--------------------------(It's 12-12, not 1-2-1-2 & so on)----|

3:19 - 3:43

G|--------------------------------------------|
D|32---32---32---32----32----32-----32-----32-|
A|--03---03---03---033---033---0333---0333---0|
E|--------------------------------------------|

3:44 - 4:06

G|----------------------------------------
D|-------------32--------------32---------
A|3333333333333--32222222222222--200000000
E|----------------------------------------

G|----------------(It's 14-14 not 1-4-1-4 & so on)-----------
D|-----------------------------------------------------------
A|00000000-141414141411414-1515151515151515-1717171717171717-
E|-----------------------------------------------------------

G|----------------------------------------------------------
D|-------------32--------------32---------------------------
A|3333333333333--32222222222222--200000000-1414141414141414-
E|----------------------------------------------------------

G|-------------------------------------|
D|-------------------------------------|
A|1515151515151515-1010101010101010----|
E|-------------------------------------|

4:07 - end

G|-5-5-5-5-5-5-4-4-9-9-9-9-10-10-10-9-5-5-5-5-5-5-4-4-2-2-2-2-2-2-2-2--5|
D|----------------------------------------------------------------------|
A|----------------------------------------------------------------------|
E|----------------------------------------------------------------------|
            
Submit corrections


        This Modern Love lessons Hard to play? Try these video lessons and learn fast This Modern Love lessons
        
↑ Back to top | Tablatures and chords for acoustic guitar and electric guitar, ukulele, drums are parodies/interpretations of the original songs. You may use it for private study, scholarship, research or language learning purposes only