» » »

Bloc Party - Song For Clay Disappear Here Bass

Artists:  A B C D E F G H I J K L M N O P Q R S T U V W X Y Z # 

Song For Clay Disappear Here Bass

(ver. 2) Click to play this song!
Bloc Party
 Rating:
4/5 (4 votes)

 Song For Clay Disappear Here lessons Tabs too difficult? Try these video lessons and learn fast
 
                Bloc Party – Song For Clay (Disappear Here)


Bass comes in at 1:08 with a slide

4 x :Intro/Outro

G|------------------------------------------------------------------|
D|-----------------------------------------------------4-4-----6-6--|
A|-1-1-1-3-4-3-1-1-----------------6-6-6-6-6-6-6-6------------------|
E|-----------------2-2-2-2-4-4-4-4-----------------2-2-----4-4------|


2 x Verse part one:

G|------------------------------------------------------------------|
D|------------------------------------------------------------------|
A|-1-1-1-1-1-1-1-1-1-1-1-1-1-1-1-1-4-4-4-4-4-4-4-4-4-4-4-4-4-4-4-4--|
E|------------------------------------------------------------------|

G|------------------------------------------------------------------|
D|------------------------------------------------------------------|
A|---------------------------------1-1-1-1-1-1-1-1-1-1-1-1-1-1-1-1--|
E|-1-1-1-1-1-1-1-1-1-1-1-1-1-1-1-1----------------------------------|


2 x Verse part two:

G|------------------------------------------------------------------|
D|------------------------------------------------------------------|
A|-1-1-1-1-1-1-1-1-1-1-1-1-1-1-4-4-4-4-4-4-4-4-4-4-4-4-4-4----------|
E|------------------------------------------------------------------|

G|------------------------------------------------------------------|
D|------------------------------------------------------------------|
A|-----------------------------1-1-1-1-1-1-1-1-1-1-1-1-1-1----------|
E|-1-1-1-1-1-1-1-1-1-1-1-1-1-1--------------------------------------|


4 x Chorus:


G|------------------------------------------------------------------|
D|------------------------------------------------------------------|
A|-1-1-1-1-4-4-4-4---------4-4-4-4---------4-4-4-4------------------|
E|-----------------2-2-2-2---------2-2-2-2---------2-2-2-2-4-4-4-4--|

2 x Intro/Outro

G|------------------------------------------------------------------|
D|-----------------------------------------------------4-4-----6-6--|
A|-1-1-1-3-4-3-1-1-----------------6-6-6-6-6-6-6-6------------------|
E|-----------------2-2-2-2-4-4-4-4-----------------2-2-----4-4------|


2 x Verse part one:

G|------------------------------------------------------------------|
D|------------------------------------------------------------------|
A|-1-1-1-1-1-1-1-1-1-1-1-1-1-1-1-1-4-4-4-4-4-4-4-4-4-4-4-4-4-4-4-4--|
E|------------------------------------------------------------------|

G|------------------------------------------------------------------|
D|------------------------------------------------------------------|
A|---------------------------------1-1-1-1-1-1-1-1-1-1-1-1-1-1-1-1--|
E|-1-1-1-1-1-1-1-1-1-1-1-1-1-1-1-1----------------------------------|


2 x Verse part two:

G|------------------------------------------------------------------|
D|------------------------------------------------------------------|
A|-1-1-1-1-1-1-1-1-1-1-1-1-1-1-4-4-4-4-4-4-4-4-4-4-4-4-4-4----------|
E|------------------------------------------------------------------|

G|------------------------------------------------------------------|
D|------------------------------------------------------------------|
A|-----------------------------1-1-1-1-1-1-1-1-1-1-1-1-1-1----------|
E|-1-1-1-1-1-1-1-1-1-1-1-1-1-1--------------------------------------|


1 x Brigde

“Because East London is a vampire…” 

G|------------------------------------------------------------------|
D|------------------------------------------------------------------|
A|--------------------------------------------------------1-1-1-1-1-|
E|------------------------------------------------------------------|

G|------------------------------------------------------------------|
D|------------------------------------------------------------------|
A|----------------------------------0-0-0-0-0-0-0-0-0-0-0-0-0-0-0-0-|
E|------------------------------------------------------------------|

4 x Chorus:


G|------------------------------------------------------------------|
D|------------------------------------------------------------------|
A|-1-1-1-1-4-4-4-4---------4-4-4-4---------4-4-4-4------------------|
E|-----------------2-2-2-2---------2-2-2-2---------2-2-2-2-4-4-4-4--|

4 x Intro/Outro

G|------------------------------------------------------------------|
D|-----------------------------------------------------4-4-----6-6--|
A|-1-1-1-3-4-3-1-1-----------------6-6-6-6-6-6-6-6------------------|
E|-----------------2-2-2-2-4-4-4-4-----------------2-2-----4-4------|

have fun,
carsten
            
Submit corrections


        Song For Clay Disappear Here lessons Hard to play? Try these video lessons and learn fast Song For Clay Disappear Here lessons
        
↑ Back to top | Tablatures and chords for acoustic guitar and electric guitar, ukulele, drums are parodies/interpretations of the original songs. You may use it for private study, scholarship, research or language learning purposes only