» » »

Bloc Party - So Here We Are Bass

Artists:  A B C D E F G H I J K L M N O P Q R S T U V W X Y Z # 

So Here We Are Bass

(ver. 3) Click to play this song!
Bloc Party
 Rating:
4/5 (4 votes)

 So Here We Are lessons Tabs too difficult? Try these video lessons and learn fast
 
                ----------------------------------------------------------------------------
			     So Here We Are - Bloc Party
----------------------------------------------------------------------------

SO HERE WE ARE is my all time favourite Bloc Party song and quite frankly the bass tab 
here was terrible to say the least. Bloc Party are one of the bast bands out at the 
they are great live and every song on Silent Alarm is absolutely awesome.

Any suggestions of improvements, especially for the for the out chorus would be greatly 
enjoy..


Tuning:E,A,D,G

8 Bar guitar intro

Intro: x2
G|-----6-------6-------6-------6-------6-------6-------6-------6---|
D|---7---7---7---7---7---7---7---7---7---7---7---7---7---6---7---7-|
A|-0-------0-------0-------0-------5-------5-------5-------5-------|
E|-----------------------------------------------------------------|

Verse: x2

G|-----6-------6-------6-------6-------6-------6-------6-------6---|
D|---7---7---7---7---7---7---7---7---7---7---7---7---7---6---7---7-|
A|-0-------0-------0-------0-------5-------5-------5-------5-------|
E|-----------------------------------------------------------------|

Bridge: x1

G|-----6-------6-------6-------6-------6-------6-------6-------6---|
D|---7---7---7---7---7---7---7---7---7---7---7---7---7---6---7---7-|
A|-7-------7-------7-------7-------5-------5-------5-------5-------|
E|-----------------------------------------------------------------|

Verse: x2

G|-----6-------6-------6-------6-------6-------6-------6-------6---|
D|---7---7---7---7---7---7---7---7---7---7---7---7---7---6---7---7-|
A|-0-------0-------0-------0-------5-------5-------5-------5-------|
E|-----------------------------------------------------------------|

Bridge: x2

G|-----6-------6-------6-------6-------6-------6-------6-------6---|
D|---7---7---7---7---7---7---7---7---7---7---7---7---7---6---7---7-|
A|-7-------7-------7-------7-------5-------5-------5-------5-------|
E|-----------------------------------------------------------------|

Build up: x6

G|-----6-------6-------6-------6-------6-------6-------6-------6---|
D|---7---7---7---7---7---7---7---7---7---7---7---7---7---6---7---7-|
A|-0-------0-------0-------0-------5-------5-------5-------5-------|
E|-----------------------------------------------------------------|

chorus: x4

G|-----6-------6-------6-------6-------6-------6-------6-------6---|
D|---7---7---7---7---7---7---7---7---7---7---7---7---7---7---7---7-|
A|-0-------0-------0-------0-------5-------5-------5-------5-------|
E|-----------------------------------------------------------------|

not sure about the end chorus because it sounds like chords but nothing i can find fits. 
sounds pretty close.

Out Chorus: x2

G|------------------------------------------------|
D|-7---14-14--9-9--11-11--7-7---14-14--9-9--11-11-|
A|-0---0--0---0-0--0--0---0-0---0--0---0-0--0--0--|
E|------------------------------------------------|

G|-----9--9---------------------9--9--------------|
D|-7---x--x---9-9--11-11--7-7---x--x---9-9--11-11-|
A|-9---9--9---9-9--9--9---9-9---9--9---9-9--9--9--|
E|------------------------------------------------|

| /  slide up
| \  slide down
| h  hammer-on
| p  pull-off
| ~  vibrato
| +  harmonic
| x  Mute note
============================================================================
            
Submit corrections


        So Here We Are lessons Hard to play? Try these video lessons and learn fast So Here We Are lessons
        
↑ Back to top | Tablatures and chords for acoustic guitar and electric guitar, ukulele, drums are parodies/interpretations of the original songs. You may use it for private study, scholarship, research or language learning purposes only