» » »

Bloc Party - Signs Tabs

Artists:  A B C D E F G H I J K L M N O P Q R S T U V W X Y Z # 

Signs Tabs

(ver. 2) Click to play this song!
Bloc Party
 Rating:
4/5 (4 votes)

 Signs lessons Tabs too difficult? Try these video lessons and learn fast
 
                (Live)
Guitar 1: Russell
Guitar 2: Kele (-2 Oactaves For A Bass Sound)


Guitar 1
E||------------------------|------------------------|
B||------------------------|---------------12-------|
G||----------11----9-------|----------9-------------| X 6
D||--9---------------------|--9---------------------|
A||------------------------|------------------------|
E||------------------------|------------------------|

Guitar 2 (Plays After Guitar 1 Plays Twice, Plays This Riff Unless Stated)
E||-------|-------|-------|-------|-------|-------|-------|-------|
B||-------|-------|-------|-------|-------|-------|-------|-------|
G||-------|-------|-------|-------|-------|-------|-------|-------| 
D||-------|-------|-------|-------|-------|-------|-------|-------|
A||-------|-------|-------|-------|-------|-------|-------|-------|
E||9------|7------|5------|0------|9------|7------|5------|12-----|



Guitar 1
E||------------------------|-------------------------|
B||--9---------------------|--10-------9-------------|
G||----------11----9-------|----------------11-------|
D||------------------------|-------------------------| X 2
A||------------------------|-------------------------|
E||------------------------|-------------------------|

Guitar 1
E||------------------------|------------------------|
B||------------------------|---------------12-------|
G||----------11----9-------|----------9-------------| X 2
D||--9---------------------|--9---------------------|
A||------------------------|------------------------|
E||------------------------|------------------------|

Guitar 1
E||------------------------|-------------------------|
B||--9---------------------|--10-------9-------------|
G||----------11----9-------|----------------11-------|
D||------------------------|-------------------------| X 2
A||------------------------|-------------------------|
E||------------------------|-------------------------|

Guitar 1
E||-------------------------|------------------------|
B||-------------------------|------------------12----|
G||-------9----11--9-----9--|-------9----11----------| x 2
D||--9----------------9-----|--9---------------------|
A||-------------------------|------------------------|
E||-------------------------|------------------------|

Guitar 1
E||-------------------------|---------------------------|
A||-------9-----------------|-------10----9-------------|
G||------------11--9-----9--|----------------11--9--11--| x 2
D||--9----------------9-----|--9------------------------|
A||-------------------------|---------------------------|
E||-------------------------|---------------------------|

Guitar 1   
E||--9-----7-----4-----2-----|--9-----7-----4-----2-----|--9-----7-----4-----2-----|
B||-----9-----7-----5-----2--|-----9-----7-----5-----2--|-----9-----7-----5-----2--|
G||--------------------------|--------------------------|--------------------------|
D||--------------------------|--------------------------|--------------------------|
A||--------------------------|--------------------------|--------------------------|
E||--------------------------|--------------------------|--------------------------|

--5----4--2--0-----0--2---|
----------------2---------|
--------------------------|
--------------------------| x 5
--------------------------|
--------------------------|

Guitar 1 (Wah Wah Effect Boss PW-10) - (NO Guitar 2 HERE For 6 Bars)

E||-------------------------|
B||-------------------------|
G||-------------4-----------| x 6
D||-------2-----------2-----|
A||--4-------4-----4-----4--|
E||-------------------------|

Guitar 1
E||--------------------------|------------------------------|
B||--------------------------|------------------------------|
G||--6-----6-----8-----8-----|--9-----9-----16------16------|
D||-----6-----6-----9-----9--|-----9-----9------16------16--| x 1
A||--------------------------|------------------------------|
E||--------------------------|------------------------------|

Guitar 1
E||-----------------------|----------------------|
B||--10------9------------|----------------------|
G||---------------11------|--9------9----11------| x 2
D||-----------------------|----------------------|
A||-----------------------|----------------------|
E||-----------------------|----------------------|

Guitar 1     
E||--9-----9-----11------11------|--12------12------19------19------|
B||-----9-----9------12------12--|------12------12------17------17--|
G||------------------------------|----------------------------------| x 1
D||------------------------------|----------------------------------|
A||------------------------------|----------------------------------|
E||------------------------------|----------------------------------|

Guitar 1        
E||--17------16----14------|--12------12----14------|
B||------------------------|------------------------|
G||------------------------|------------------------|
D||------------------------|------------------------| x 1
A||------------------------|------------------------|
E||------------------------|------------------------|

Guitar 1    
E||--17------16------17----|-----16------14----12----|
B||------------------------|-------------------------|
G||------------------------|-------------------------|
D||------------------------|-------------------------| x 1
A||------------------------|-------------------------|
E||------------------------|-------------------------|

Guitar 1  
E||--12------12------12------14------|--11------11------11------11------|
B||------12------12------12------12--|------12------12------12------12--|
G||----------------------------------|----------------------------------|x 1
D||----------------------------------|----------------------------------|
A||----------------------------------|----------------------------------|
E||----------------------------------|----------------------------------|
Guitar 1     
E||--9-----9-----11------11------|--12------12------19------19------|
B||-----9-----9------12------12--|------12------12------17------17--|
G||------------------------------|----------------------------------| x 1
D||------------------------------|----------------------------------|
A||------------------------------|----------------------------------|
E||------------------------------|----------------------------------|

Guitar 1        
E||--17------16----14------|--12------12----14------|
B||------------------------|------------------------|
G||------------------------|------------------------|
D||------------------------|------------------------| x 1
A||------------------------|------------------------|
E||------------------------|------------------------|

Guitar 1    
E||--17------16------17----|-----16------14----12----|
B||------------------------|-------------------------|
G||------------------------|-------------------------|
D||------------------------|-------------------------| x 1
A||------------------------|-------------------------|
E||------------------------|-------------------------|

Guitar 1  
E||--12------12------12------14------|--11------11------11------11------|
B||------12------12------12------12--|------12------12------12------12--|
G||----------------------------------|----------------------------------|x 1
D||----------------------------------|----------------------------------|
A||----------------------------------|----------------------------------|
E||----------------------------------|----------------------------------|
Guitar 1     
E||--9-----9-----11------11------|--12------12------19------19------|
B||-----9-----9------12------12--|------12------12------17------17--|
G||------------------------------|----------------------------------| x 1
D||------------------------------|----------------------------------|
A||------------------------------|----------------------------------|
E||------------------------------|----------------------------------|

Guitar 1        
E||--17------16----14------|--12------12----14------|
B||------------------------|------------------------|
G||------------------------|------------------------|
D||------------------------|------------------------| x 1
A||------------------------|------------------------|
E||------------------------|------------------------|

Guitar 1    
E||--17------16------17----|-----16------14----12----|
B||------------------------|-------------------------|
G||------------------------|-------------------------|
D||------------------------|-------------------------| x 1
A||------------------------|-------------------------|
E||------------------------|-------------------------|

Guitar 1  
E||--12------12------12------14------|--11------11------11------11------|
B||------12------12------12------12--|------12------12------12------12--|
G||----------------------------------|----------------------------------|x 1
D||----------------------------------|----------------------------------|
A||----------------------------------|----------------------------------|
E||----------------------------------|----------------------------------|
            
Submit corrections


        Signs lessons Hard to play? Try these video lessons and learn fast Signs lessons
        
↑ Back to top | Tablatures and chords for acoustic guitar and electric guitar, ukulele, drums are parodies/interpretations of the original songs. You may use it for private study, scholarship, research or language learning purposes only