» » »

Bloc Party - Secrets Tabs

Artists:  A B C D E F G H I J K L M N O P Q R S T U V W X Y Z # 

Secrets Tabs

(ver. 1) Click to play this song!
Bloc Party
 Rating:
4/5 (4 votes)

 Secrets lessons Tabs too difficult? Try these video lessons and learn fast
 
                (Intro)
-------------------------------------------------------------------------------
                             Secrets - Bloc Party
-------------------------------------------------------------------------------

new song released with a really nice riff.

Tuning: standard

e|---7---------------------------------------------------------------------------7-7---|
B|------10-7------------7-----------------------------7-7------7--10-10--7--10---------|
G|------------9-9----9-----9--7-----------------7--9--------9--------------------------|
D|---------------------------------7--9-----7--9---------------------------------------|
A|-------------------------------------------------------------------------------------|
E|-------------------------------------------------------------------------------------|

e|---17-14--------------------------------------------------------14--17--19-|
B|---------17--15-15---15--17--------------------15----17---15-17------------|
G|-----------------------------16--14-16--14--16----16-----------------------|
D|---------------------------------------------------------------------------|
A|---------------------------------------------------------------------------|
E|---------------------------------------------------------------------------|
            
Submit corrections


        Secrets lessons Hard to play? Try these video lessons and learn fast Secrets lessons
        
↑ Back to top | Tablatures and chords for acoustic guitar and electric guitar, ukulele, drums are parodies/interpretations of the original songs. You may use it for private study, scholarship, research or language learning purposes only