» » »

Bloc Party - One Month Off Bass

Artists:  A B C D E F G H I J K L M N O P Q R S T U V W X Y Z # 

One Month Off Bass

(ver. 2) Click to play this song!
Bloc Party
 Rating:
4/5 (4 votes)

 One Month Off lessons Tabs too difficult? Try these video lessons and learn fast
 
                Great song from Intimacy

Intro/Verse
The 5s are in brackets because you only play them every other time
G|-------------------|
D|-------3-2---------|
A|00---------33--(55)|
E|-------------------|

Chorus
G|--------------|
D|--------33----|
A|00--33------33|
E|--------------|x3
After last time
G|----------------|
D|----------------|
A|5353535353535353|
E|----------------|

End of Verse 2 "Stuck on a dreamland"
G|-----------------------------------------------|
D|33333333-------22222222--------3333333355555555|
A|--------3333333--------00000000----------------|
E|-----------------------------------------------|

Breakdown "If you need time"
G|--------------------------------------------------------|
D|----------332-----------332-----------332-5555----------|
A|-----33-3----------33-3----------33-3---------555-7/887-|
E|5535---5------5535---5------5535---5--------------------|

G|-----------------------------------------------------------|
D|----------332---------------------------332-5555-----------|
A|-----33-3----------33-3------------33-3---------555-7/8888-|
E|5535---5------5535---5--0013--5535---5---------------------|

Chorus

Chorus Key-Change
G|--------------|
D|--------55----|
A|22--55------55|
E|--------------|x3

G|----------------|
D|----------------|
A|7575757575757575|
E|----------------|

During the solo, play the key-change chorus

After solo finished,and the sampled vocals start
G|----------------------------------------|
D|----------------------------------------|
A|22------22-------22-------8-7-6-4--2~---|
E|----------------------------------------|
            
Submit corrections


        One Month Off lessons Hard to play? Try these video lessons and learn fast One Month Off lessons
        
↑ Back to top | Tablatures and chords for acoustic guitar and electric guitar, ukulele, drums are parodies/interpretations of the original songs. You may use it for private study, scholarship, research or language learning purposes only