Home » B » Bloc Party »

Bloc Party - Once And Future King Tabs

Artists:  A B C D E F G H I J K L M N O P Q R S T U V W X Y Z # 

Once And Future King Tabs

(ver. 2) Click to play this song!
Bloc Party
 Rating:
4/5 (4 votes)
                (Intro)
Here is the intro to the song The Once and Future King off of Bloc Party's A Weekend In 
City Album (Target Edition) This is my first tab.


(11's not ones)

e[---------------------------------------------------------------------]
B[---------------------------------------------------------------------]
G[---9-9------9-9-9-11-9-----9-9-----9-999-7-6---9-9------9-9-9-11-9---]
D[--7----7--7---------------7----7-7------------7----7--7--------------]
A[---------------------------------------------------------------------]
E[---------------------------------------------------------------------]

e[-------------------]
B[-------------------]
G[---9-9-------------]   Repeat As Needed
D[--7---7-7----------]
A[-------------------]
E[-------------------]
            
Submit corrections

↑ Back to top | Tablatures and chords for acoustic guitar and electric guitar, ukulele, drums are parodies/interpretations of the original songs. You may use it for private study, scholarship, research or language learning purposes only