» » »

Bloc Party - Luno Bass

Artists:  A B C D E F G H I J K L M N O P Q R S T U V W X Y Z # 

Luno Bass

(ver. 2) Click to play this song!
Bloc Party
 Rating:
4/5 (4 votes)

 Luno lessons Tabs too difficult? Try these video lessons and learn fast
 
                -------------------------------------------------------------------------------
			  Luno - Bloc Party
-------------------------------------------------------------------------------


Tuning:EADG

Very easy to tab and play on bass. Enjoy!
Intro/Verse:
G|---------------------------------------------------------------------------|
D|---------------------------------------------------------------------------|
A|---------------------------------------------------------------------------|
E|7-7-7-7-7-7-7-7-7-7-7-7-7-7-7-7-7-7-7-7-7-7-7-7-7-7-7-7-7-7-7-7-7-7--------|

G|---------------------------------------------------------------------------|
D|---------------------------------------------------------------------------|
A|-5-5-5-5-5-5-5-5-5-5-5-5-5-------------------------------------------------|
E|---------------------------7-7-7-7-7-7-7-7-7-7-7-7-7-7-7-7-7---------------|


"And Your Nose Is Bleeding" Part

G|---------------------------------------------------------------------------|
D|---------------------------------------------------------------------------|
A|10-10-10--9-9-9-9-9-9-9-9-9-9-9-9--10-10-10--9-9-9-9-9-9-9-9-9-9-9-9-------|
E|---------------------------------------------------------------------------|

G|---------------------------------------------------------------------------|
D|---------------------------------------------------------------------------|
A|10-10-10--9-9-9-9-9-9-9-9-9-9-9-9------------------------------------------|
E|--------------------------------------7-7-7-7-7-7-7-7----------------------|

Then Intro/Verse Riff Again
G|---------------------------------------------------------------------------|
D|---------------------------------------------------------------------------|
A|---------------------------------------------------------------------------|
E|7-7-7-7-7-7-7-7-7-7-7-7-7-7-7-7-7-7-7-7-7-7-7-7-7-7-7-7-7-7-7-7-7-7--------|

G|---------------------------------------------------------------------------|
D|---------------------------------------------------------------------------|
A|-5-5-5-5-5-5-5-5-5-5-5-5-5-------------------------------------------------|
E|---------------------------7-7-7-7-7-7-7-7-7-7-7-7-7-7-7-7-7---------------|

then the "Your Nose Is Bleeding" Part again
G|---------------------------------------------------------------------------|
D|---------------------------------------------------------------------------|
A|10-10-10--9-9-9-9-9-9-9-9-9-9-9-9--10-10-10--9-9-9-9-9-9-9-9-9-9-9-9-------|
E|---------------------------------------------------------------------------|

G|---------------------------------------------------------------------------|
D|---------------------------------------------------------------------------|
A|10-10-10--9-9-9-9-9-9-9-9-9-9-9-9------------------------------------------|
E|--------------------------------------7-7-7-7-7-7-7-7----------------------|

then the bridge is:

G|---------------------------------------------------------------------------|
D|---------------------------------------------------------------------------|
A|-2-2-2--------5-5-5--------7-7-7-----------10-10-10------------------------|
E|-------2-2-2---------5-5-5-------7-7-7--------------10-10-10---------------|

Then Intro/Verse Riff
G|---------------------------------------------------------------------------|
D|---------------------------------------------------------------------------|
A|---------------------------------------------------------------------------|
E|7-7-7-7-7-7-7-7-7-7-7-7-7-7-7-7-7-7-7-7-7-7-7-7-7-7-7-7-7-7-7-7-7-7--------|

G|---------------------------------------------------------------------------|
D|---------------------------------------------------------------------------|
A|-5-5-5-5-5-5-5-5-5-5-5-5-5-------------------------------------------------|
E|---------------------------7-7-7-7-7-7-7-7-7-7-7-7-7-7-7-7-7---------------|


then the "Your Nose Is Bleeding" Part
G|---------------------------------------------------------------------------|
D|---------------------------------------------------------------------------|
A|10-10-10--9-9-9-9-9-9-9-9-9-9-9-9--10-10-10--9-9-9-9-9-9-9-9-9-9-9-9-------|
E|---------------------------------------------------------------------------|

G|---------------------------------------------------------------------------|
D|---------------------------------------------------------------------------|
A|10-10-10--9-9-9-9-9-9-9-9-9-9-9-9------------------------------------------|
E|--------------------------------------7-7-7-7-7-7-7-7----------------------|

then the bridge 
G|---------------------------------------------------------------------------|
D|---------------------------------------------------------------------------|
A|-2-2-2--------5-5-5--------7-7-7-----------10-10-10------------------------|
E|-------2-2-2---------5-5-5-------7-7-7--------------10-10-10---------------|



The ending is just

G|---------------------------------------------------------------------------|
D|---------------------------------------------------------------------------|
A|---------------------------------------------------------------------------|
E|7-7-7-7-7-7-7-7-7-7-7-7-7-7-7-7-7-7-7-7-7-7-7-7-7-7-7-7-7-7-7-7-7-7-7-7-7-7|

You just need to get the 3 riffs down, because thats what the whole song is. Please rate and comment!

| /  slide up
| \  slide down
| h  hammer-on
| p  pull-off
| ~  vibrato
| +  harmonic
| x  Mute note
===============================================================================
            
Submit corrections


        Luno lessons Hard to play? Try these video lessons and learn fast Luno lessons
        
↑ Back to top | Tablatures and chords for acoustic guitar and electric guitar, ukulele, drums are parodies/interpretations of the original songs. You may use it for private study, scholarship, research or language learning purposes only