» » »

Bloc Party - Leaf Skeleton Tabs

Artists:  A B C D E F G H I J K L M N O P Q R S T U V W X Y Z # 

Leaf Skeleton Tabs

(ver. 2) Click to play this song!
Bloc Party
 Rating:
3.2/5 (30 votes)

 Leaf Skeleton lessons Tabs too difficult? Try these video lessons and learn fast
 
                Guitar .1

e|-------------------------------------------------------------------------|
b|-8---------8---------8---------8---------8-------8-------8-------10------|
g|------7---------7---------7---------7--------7-------7-------7-------7---|
d|---10---10---10---10---10---10---10---10---9---9---9---9---9---9---9---9-|
a|-------------------------------------------------------------------------|
e|-------------------------------------------------------------------------|



Guitar .2

e|---------------------------------------|
b|---------------------------------------|
g|---------------------------------------|
d|-7--9--10--7--9--10--7--9--10--7--9--10|
a|---------------------------------------|
e|---------------------------------------|

Repeated in verses            
Submit corrections


        Leaf Skeleton lessons Hard to play? Try these video lessons and learn fast Leaf Skeleton lessons
        
↑ Back to top | Tablatures and chords for acoustic guitar and electric guitar, ukulele, drums are parodies/interpretations of the original songs. You may use it for private study, scholarship, research or language learning purposes only