» » »

Bloc Party - I Still Remember Tabs

Artists:  A B C D E F G H I J K L M N O P Q R S T U V W X Y Z # 

I Still Remember Tabs

(ver. 2) Click to play this song!
Bloc Party
 Rating:
4/5 (4 votes)

 I Still Remember lessons Tabs too difficult? Try these video lessons and learn fast
 
                ok well it is the whole song,but some of Keles and Russels riffs are a little off!

Intro:(Russel)x2

e|---------------------------------------------------------------------------|
B|--------13-11-10-----------13-11-10-------------10-----------------10------|
G|--10-10-----------10/9-9-9------------10-12-12-----10----10-12-12----10----|
D|-----------------------------------------------------10----------------10--|
A|---------------------------------------------------------------------------|
E|---------------------------------------------------------------------------|

verse:(Kele)play first chord at intro

e|--8-----1-----3-----5-----8-----------------------------------------------|
B|--8-----1-----3-----5-----8-----------------------------------------------|
G|--10----3-----5-----7-----10----------------------------------------------|
D|--10----3-----5-----7-----10----------------------------------------------|
A|--8-----1-----3-----5-----8-----------------------------------------------|
E|--------------------------------------------------------------------------|

pre chorus:(russel)
e|--------------------------------------------------------------------------|
B|--13--11--10--------------------------------------------------------------|
G|--------------------------------------------------------------------------|
D|--------------------------------------------------------------------------|
A|--------------------------------------------------------------------------|
E|--------------------------------------------------------------------------|
                                      the last chord is
not to sure about this one!       played as russels sliding up frets at end
                                      of chorus
chorus:(Kele)
e|--5----1----3------------6-----8-----10---|--8----------------------------|
B|--5----1----3------------6-----8-----10---|--8----------------------------|
G|--7----3----5------x-6---6-----8-----10---|--10---------------------------|
D|--7----3----5------------8-----10----12---|--10---------------------------|
A|--5----1----3------------8-----10----12---|--8----------------------------|
E|-------------------------6-----8-----10---|-------------------------------|

not really sure about this either!
chorus:(Russel)
e|--------------------------------------------------------------------------|
B|--13--11--10--------------------------------------------------------------|
G|---------------12--10--9--10--12------------------------------------------|
D|--------------------------------------------------------------------------|
A|--------------------------------------------------------------------------|
E|--------------------------------------------------------------------------|

then after a couple of times:
e|----------------------|---------------------------------------------------|
B|----------------------|---------------------------------------------------|
G|--12--10--9--10--12---|-14-x8---15-x4---17-x4-----------------------------|
D|----------------------|---------------------------------------------------|
A|----------------------|---------------------------------------------------|
E|----------------------|---------------------------------------------------|

all picked twice
e|---------------------------------------------------------------------------|
B|-------------------------------18------------------------------------------|
G|-7--9--10--12--14--15--17--21----------------------------------------------|
D|---------------------------------------------------------------------------|
A|---------------------------------------------------------------------------|
E|---------------------------------------------------------------------------|

outro:Kele plays this chord when Russel is playin the high up ending
e|-8------------------------------------------------------------------------|
B|-8------------------------------------------------------------------------|
G|-10-----------------------------------------------------------------------|
D|-10-----------------------------------------------------------------------|
A|-8------------------------------------------------------------------------|
E|--------------------------------------------------------------------------|

while Russel plays intro riff and then he slides up onto these frets
e|---------20-18-17-------------20-18-17-----------17--------------17-------|
B|--18-18-----------18\17-17-17-----------18-20-20---18---18-20-20---18-----|
G|-----------------------------------------------------17--------------17---|
D|--------------------------------------------------------------------------|
A|--------------------------------------------------------------------------|
E|--------------------------------------------------------------------------|

well thats it track 9 off bloc party's great new album,hope yous like it and good luck with it!Mark
            
Submit corrections


        I Still Remember lessons Hard to play? Try these video lessons and learn fast I Still Remember lessons
        
↑ Back to top | Tablatures and chords for acoustic guitar and electric guitar, ukulele, drums are parodies/interpretations of the original songs. You may use it for private study, scholarship, research or language learning purposes only