» » »

Bloc Party - Helicopter Bass

Artists:  A B C D E F G H I J K L M N O P Q R S T U V W X Y Z # 

Helicopter Bass

(ver. 1) Click to play this song!
Bloc Party
 Rating:
4/5 (4 votes)

 Helicopter lessons Tabs too difficult? Try these video lessons and learn fast
 
                ----------------------------------------------------------------------------
			     HELICOPTER - Bloc Party
----------------------------------------------------------------------------


Tuning:Standard (E,A,D,G)

Intro (x2) play after the guitars riff 4 times.
G|------------------------------|
D|------------------------------|
A|-------------5555-7777--------|
E|---7777-7777------------------|

Verse (x4)
G|------------------------------|
D|------------------------------|
A|-------------5555-7777--------|
E|---7777-7777------------------|

Pre-Chorus (x2)                  (break)
G|----------------------------------|--------------------------------------|
D|----------------------------------|--------------------------------------|
A|----------------------------------|----------------------55555555555555--|
E|--22222222-77777777-22222222-7-7--|----22222222-77777777-----------------|

Chorus (x2)
G|-------------------------------------------------------------------------|
D|-------------------------------------------------------------------------|
A|-14-14-14-14-14-14-14-14-12-12-12-12-12-12-12-12-10-10-10-10-10-10-10-10-|
E|-------------------------------------------------------------------------|
Chorus (cont.)
G|--------------------------|
D|--------------------------|
A|-------------10-10-9-9----|
E|--10-10-9-9---------------|

Post-Chorus (x2)
G|------------------------------|
D|------------------------------|
A|-------------5555-7777--------|
E|---7777-7777------------------|


Verse (x4)
G|------------------------------|
D|------------------------------|
A|-------------5555-7777--------|
E|---7777-7777------------------|

Pre-Chorus (x2)                  (break)
G|----------------------------------|--------------------------------------|
D|----------------------------------|--------------------------------------|
A|----------------------------------|----------------------55555555555555--|
E|--22222222-77777777-22222222-7-7--|----22222222-77777777-----------------|

Chorus (x2)
G|-------------------------------------------------------------------------|
D|-------------------------------------------------------------------------|
A|-14-14-14-14-14-14-14-14-12-12-12-12-12-12-12-12-10-10-10-10-10-10-10-10-|
E|-------------------------------------------------------------------------|
Chorus (cont.)
G|--------------------------|
D|--------------------------|
A|-------------10-10-9-9----|
E|--10-10-9-9---------------|

Bridge (x1)
G|-------------------------------------------------------------------------|
D|-------------------------------------------------------------------------|
A|--14-------14------14-------14----12-12-12-12-12-12-12-12----------------|
E|-------------------------------------------------------------------------|
Bridge(cont.)(i don't think the slide at the end is played but it sounds better)
G|-------------------------------------------------------------------------|
D|-------------------------------------------------------------------------|
A|12-12-12-12-12-12-12-12-12-12-12-11-12-12-12-11-12-12-12-11-17-17-17///0-|
E|-------------------------------------------------------------------------|

Chorus (x2)
G|-------------------------------------------------------------------------|
D|-------------------------------------------------------------------------|
A|-14-14-14-14-14-14-14-14-12-12-12-12-12-12-12-12-10-10-10-10-10-10-10-10-|
E|-------------------------------------------------------------------------|
Chorus (cont.)
G|--------------------------|
D|--------------------------|
A|-------------10-10-9-9----|
E|--10-10-9-9---------------|

Outro (x1)
G|------|
D|------|
A|--14--|
E|------|

I got it wrong the 1st time and just mucked up wen i woz writing it so here is the 
version. Soz. Plz rate!
            
Submit corrections


        Helicopter lessons Hard to play? Try these video lessons and learn fast Helicopter lessons
        
↑ Back to top | Tablatures and chords for acoustic guitar and electric guitar, ukulele, drums are parodies/interpretations of the original songs. You may use it for private study, scholarship, research or language learning purposes only