Home » B » Bloc Party »

Bloc Party - Better Than Heaven Bass

Artists:  A B C D E F G H I J K L M N O P Q R S T U V W X Y Z # 

Better Than Heaven Bass

(ver. 2) Click to play this song!
Bloc Party
 Rating:
4/5 (4 votes)
                Artist - Bloc Party
Song - Better Than Heaven
Album - Intimacy

correction should be.

The bass in this sound doesn't stand out much, had to plug my ipod into my
bass amp listen clearly. The second part of the breakdown is played pretty
fast and hard to hear.

Verse (0:05)
G|----------|
D|----------|
A|----------|
E|-0-00-0---|    x23 skip this bar once at (0:34)

Chorus (1:08)
G|-------------------------------------|
D|-------------------------------------|
A|-------------------------------------|
E|-2-22-2--3--5-55-5--7-77-7--0-00-0---|    x2

Verse (1:28)
G|----------|
D|----------|
A|----------|
E|-0-00-0---|    x16

Chorus (2:10)
G|-------------------------------------|
D|-------------------------------------|
A|-------------------------------------|
E|-2-22-2--3--5-55-5--7-77-7--0-00-0---|    x2

Bridge (2:30)
G|----------|
D|----------|
A|----------|
E|-0-00-0---|    x8

Breakdown (2:51)
G|-----------------------|
D|-----------------------|
A|-----------------------|
E|-9-00-99~---5-00-55~---|     x8

(3:33)
G|-------------------------------|
D|-------------------------------|
A|-------------------------------|
E|-5545-66666666-2202-44444444---|    x4

Outro (3:54)
G|------------------------|
D|------------------------|
A|------------------------|
E|-5-00-55--020-5-00-55---|

G|-----------------------------|
D|-----------------------------|
A|-----------------------------|
E|-5-00-55--020-5-00-55--020---|    x2

G|------------------------|
D|------------------------|
A|------------------------|
E|-5-00-55--020-5-00-55---|
            
Submit corrections

↑ Back to top | Tablatures and chords for acoustic guitar and electric guitar, ukulele, drums are parodies/interpretations of the original songs. You may use it for private study, scholarship, research or language learning purposes only