» » »

Bloc Party - Banquet Bass

Artists:  A B C D E F G H I J K L M N O P Q R S T U V W X Y Z # 

Banquet Bass

(ver. 3) Click to play this song!
Bloc Party
 Rating:
3.3/5 (43 votes)

 Banquet lessons Tabs too difficult? Try these video lessons and learn fast
 
                Verse
G|--------------------------------------------------------------------|
D|--------------------------------------------------------------------|
A|--------------------------------------------------------------------|
E|--1-4\1/6~--------------------------1-4\1/6\------------------------| X2

G|----------|
D|----------|
A|----------|
E|--1/4\1---|

Chorus
G|--------------------------------------------------------------------|
D|----------------------------------------------------------4-4-3-----|
A|----------------------------3-3-3-4-4-4-4-4-4-4-4-4-4-4-4-------4---|
E|--6-6-6-6-6-6-6-6-6-6-6-6-6-----------------------------------------|

G|--------------------------------------------------------------------|
D|----------------------------------------------------------1---------|
A|----------------------------3-3-3---------------------------1-------|
E|--6-6-6-6-6-6-6-6-6-6-6-6-6-------2-2-2-2-2-2-2-2-2-222-------1-----|

G|--------------------------------------------------------------------|
D|----------------------------------------------------------4-4-3-----|
A|----------------------------3-3-3-4-4-4-4-4-4-4-4-4-4-4-4-------4---|
E|--6-6-6-6-6-6-6-6-6-6-6-6-6-----------------------------------------|

G|--------------------------------------------------------------------|
D|----------------------------------------------------------1---------|
A|----------------------------3-3-3---------------------------1-------|
E|--6-6-6-6-6-6-6-6-6-6-6-6-6-------2-2-2-2-2-2-2-2-2-222-------1-----|

Chorus-Out
G|------------------------------------|
D|------------------------------------|
A|------------------------4-6---3-4---|
E|--6---6---6---6---6---6-----5-------| X4

Verse
G|------------------------------------|
D|------------------------------------|
A|------------------------4-6---3-4---|
E|--6---6---6---6---6---6-----5-------| X4

Chorus
G|--------------------------------------------------------------------|
D|----------------------------------------------------------4-4-3-----|
A|----------------------------3-3-3-4-4-4-4-4-4-4-4-4-4-4-4-------4---|
E|--6-6-6-6-6-6-6-6-6-6-6-6-6-----------------------------------------|

G|--------------------------------------------------------------------|
D|----------------------------------------------------------1---------|
A|----------------------------3-3-3---------------------------1-------|
E|--6-6-6-6-6-6-6-6-6-6-6-6-6-------2-2-2-2-2-2-2-2-222---------1-----|

G|--------------------------------------------------------------------|
D|----------------------------------------------------------4-4-3-----|
A|----------------------------3-3-3-4-4-4-4-4-4-4-4-4-4-4-4-------4---|
E|--6-6-6-6-6-6-6-6-6-6-6-6-6-----------------------------------------|

G|--------------------------------------------------------------------|
D|--------------------------------------------------------------------|
A|----------------------------3-3-3-----------------------------------|
E|--6-6-6-6-6-6-6-6-6-6-6-6-6-------2-2-2-2-2-2-2-2/5-5-5-5-5-5-5-5---|

Bridge
G|--------------------------------------------------------------------|
D|--------------------------------------------------------------------|
A|--------------------------------------------------------------------|
E|--2-2-2-2-2-2-2-2-1-1-1-1-1-1-1-1/6-6-6-6-6-6-6-6-6-6-6-6-6-6-6-6---| X2

Outro
G|------------------------------------|
D|------------------------------------|
A|------------------------4-6---3-4---|
E|--6---6---6---6---6---6-----5-------| X4

Outro
G|------------------------------------|
D|--8-8-8-8-8-8-8-8-8-8-8-8-------6---|
A|--------------------------8-6-8-----|
E|------------------------------------| X4
            
Submit corrections


        Banquet lessons Hard to play? Try these video lessons and learn fast Banquet lessons
        
↑ Back to top | Tablatures and chords for acoustic guitar and electric guitar, ukulele, drums are parodies/interpretations of the original songs. You may use it for private study, scholarship, research or language learning purposes only