Home » B » Blind Melon »

Blind Melon - Walk Tabs

Artists:  A B C D E F G H I J K L M N O P Q R S T U V W X Y Z # 

Walk Tabs

(ver. 1) Click to play this song!
Blind Melon
#



THIS IS JUST ONE EXAMPLE OF BLIND MELONS AMAZING SONGWRITING.  
SIMPLE CHORDS AND GREAT LYRICS
THIS SONG IS QUITE SIMPLE TO PLAY ONCE YOU GET THE RHYTHM OF THE STRUMMING.



 

	Am	       C	  G	    F

E-----------------------0-0-0------3--3------1--1-1---
B--------------1-1------1-1-1------3--3------1--1-1---
G----------2---2-2------0-0-0------0--0------2--2-2---
D-------2------2-2------2-2-2------0--0------3--3-3---
A----0---------0-0------3-3-3------2--2------3--3-3---
E-----------------------3-3-3------3--3------1--1-1---

				I FIND MYSELF SINGIN..
      Am       C         G
			
E-------------0-0--0-----3-----------------------
B----1-1-1----1-1--1-----3---LET--------------BACK
G----2-2-2----0-0--0-----0--------------------TO--
D----2-2-2----2-2--2-----0------RING----------MAIN
A----0-0-0----3-3--3-----2--------------------RIFF
E-------------3-3--3-----3-----------------------



THE RHYTHM HALTS AT VARIOUS PLACES WHILE LETTING RING ON G CHORD BEFORE GETTING BACK TO THE MAIN RHYTHM.



WHEN THINGS BEHIND THE SMILE AIN’T OK…..

                        G

E-----------------------3---------------
B-----------------------3---------------
G-----------------------0---------------
D-----------------------0---LET RING----
A-----------------------2---------------
E-----------------------3---------------



  ALSO YOU WILL HEAR IT SLOWS DOWN TO HALF THE SPEED SO YOU STRUM APPROX TWICE AS LONG FOR EACH CHORD AS ‘MY FEET ARE SO COLD, I CAN’T BELIEVE THAT I HAVE TO …..’ 

     Am                                C
E-------------------------------------------------
B--------------------------------------1-----1----
G----2-----2----2------2---------------0-----0----
D----2-----2----2------2---------------2-----2----
A----0-----0----0------0---------------3-----3----
E--------------------------------------3-----3----

                   G                  F

E------------------3----3---3----3----1--1---1---1---
B--1---1-----------3----3---3----3----1--1---1---1---
G--0---0-----------0----0---0----0----2--2---2---2---
D--2---2-----------0----0---0----0----3--3---3---3---
A--3---3-----------2----2---2----2----3--3---3---3---
E--3---3-----------3----3---3----3----1--1---1---1---




LYRICS


I FIND MYSELF SINGIN THE SAME SONGS EVERYDAY
THE ONES THAT MAKE ME FEEL GOOD 
WHEN THINGS BEHIND THE SMILE AIN’T OK
AROUND AND OVER AND INBETWEEN THE SEAS
I NEED TO BE ON TOP OF A MOUNTAIN 
WHERE I CAN SEE EVERYTHING
BECAUSE THIS PARANOIAS GETTING’ OLD
OOH YEAH IT’S GETTING SO OLD

AS I OPEN MY EYES TO START ANOTHER DAY
I’M IN A PILE OF PUKE (WITH A) EMPTY BAG OF EXCUSES
BUT MY LOVE FOR FRIENDS AND FAMILY   
YOU KNOW I NEED THEM
BUT UNDER A SUN THAT’S SEEN IT ALL BEFORE

MY FEET ARE SO COLD
AND I CANT BELIEVE THAT I HAVE TO 
BANG MY HEAD AGAINST THIS WALL AGAIN
BUT THE BLOWS THEY HAVE JUST A LITTLE MORE
SPACE INBETWEEN THEM
GONNA TALE A BREATH AND 
TRY, TRY AGAIN
I’M GONNA TRY AGAIN

PARANOIAS GETTING’ OLD
            
Submit corrections

↑ Back to top | Tablatures and chords for acoustic guitar and electric guitar, ukulele, drums are parodies/interpretations of the original songs. You may use it for private study, scholarship, research or language learning purposes only