Home » B » Bleu Edmondson »

Bleu Edmondson - Last Last Time Tabs

Artists:  A B C D E F G H I J K L M N O P Q R S T U V W X Y Z # 

Last Last Time Tabs

(ver. 2) Click to play this song!
Bleu Edmondson
(Complete)
Last Last Time Bleu Edmondson   Acoustic capoed at 4th fret
Intro 
                                  F                  A               G               F 
----7---------------7---------------7------------------7---------------7---------------7--------
--5---5-4---5-----5---5-4---5-----5---5-4---5--------5---5-4---5-----5---5-4---5-----5---5-4---5
------------------------------------------------------------------------------------------------
------------------------------------------------------------------------------------------------
------------------------------------------------------------------------------------------------
------------------------------------------------------------------------------------------------
  A               G            
----7---------------7---------|C    C                                  G
--5---5-4---5-----5---5-4--5--|     Empty parking lot half a cigarette Got it of the ground so 
------------------------------|            F                     C                  Am
------------------------------|     it's a little wet I'm on the south side walking sideways
------------------------------|    G                     F 
------------------------------|     I got to drunk again
C                                            G                
Now It's a cold night a kind of late this year plans made the 
                 Fm   
cops are gone and we're outa here but I need to 
C                         Am   G           F
catch my breath cause its 3am and I still miss someone 

Chorus              
----7----------|             C                        Em     
--5---5-4---5--| This is the last last time I beg the sun to 
                                     Am             G 
                 shine addicted to a memory and its killin me This
---------------|                  F
-Play 8xs------| is the last last time
-Over chorus---|
---------------|

Bridge Lead
 F A G F A G
----7----------|            C                                         
--5---5-4---5--| Now I should hide at home cause I cant drive 
-play 5xs------|       G                F       
---------------| Everybody's callin me to see if I'm alive thy say 
---------------|     C               Am            G                   F
---------------| they got a friend I need meet and she's never heard of you
Repeat Chorus 

  Am                    G           Am       F         G
Ooh        ooh      ooh              ooh     ooh   ooh  ohhh
Solo Lead  C    Em   G   C  Em  G 
------------------------------------------------------------------------------------------------------
7-9--9-7-9---10-10-10--9-9-9--7-7-7--4-4-4-4/5---7-9---9---7-9----------------------------------------
----9-9---9------------------------------------------9---9-----9---9-9-9--8-8-8--6-6-6--4-4-4---------
----------------------------------------------------------------------------------------------6-6-6---
------------------------------------------------------------------------------------------------------
------------------------------------------------------------------------------------------------------
               C                               Em                      Am              G              C
---------------|This is the last last time I beg the sun to shine addicted to a memory and its killin me
---------------|----------------------------------------------------------------------------------------
---------------|------------------------------------------------------------------------------4-6-8-9-11
4-4-4----------|----------------------------------------------------------------------------------------
-------7-7-7-7-|------------------------------------------------------------------------------2-4-6-7-9-
---------------|----------------------------------------------------------------------------------------
                               Em                         Am                    
This is the last last  time I try to change your mind I'm addicted to the misery and 
G                                                      
its killing me and its killing me Wont stop killing me
--------------------------------------------------------0-
----4-6-8-9-11--------4-6-8-9-11---4-6-8-9-11-----------1-
--------------------------------------------------------0-
----2-4-6-7-9---------2-4-6-7-9----2-4-6-7-9------------2-
--------------------------------------------------------3-
----------------------------------------------------------
            
Submit corrections

↑ Back to top | Tablatures and chords for acoustic guitar and electric guitar, ukulele, drums are parodies/interpretations of the original songs. You may use it for private study, scholarship, research or language learning purposes only