Home » B » Bleu Edmondson »

Bleu Edmondson - Last Last Time Tabs

Artists:  A B C D E F G H I J K L M N O P Q R S T U V W X Y Z # 

Last Last Time Tabs

(ver. 1) Click to play this song!
Bleu Edmondson

"Last Last Time" by Bleu Edmondson
Leave Kudos!

Intro

E-----------------------------------
A-0000--4444--2222--0000--4444--2222
D-----------------------------------
G-----------------------------------

Verse 1

Bass falls out until halfway through the verse comes in at lyric "It's a cold night..."

E-0-0----0-0------------------0-0-------------------
A---------------2-2----0-0-----------4-4----2-2----0
D---------------------------------------------------
G---------------------------------------------------

Chorus

E------------------------------------------------------------------------------------------
A-7-77--7-77--11-1111--11--1111--4-44--4-44--2-22--2-22--0000--4444--2222--0000--4444--2222
D------------------------------------------------------------------------------------------
G------------------------------------------------------------------------------------------

Verse 2

E----------------------------------------------------
A-/7-7----7-7----2-2----0-0----7-7----4-4----2-2----0
D----------------------------------------------------
G----------------------------------------------------


Chorus 2

E-------------------------------------------------------
A-7-77--7-77--11-1111--11--1111--4-44--4-44--2-22--2-22-
D-------------------------------------------------------
G-------------------------------------------------------


"Oh Oaaah..."

E-----------------------------------------------------------
A-4-44--4-44--2-22--2-22--4-44--4-44--0-00--0-00--2-22--2-22
D-----------------------------------------------------------
G-----------------------------------------------------------

Solo

E--------------------------------------------------------------------
A-7-77--7-77--11-1111--14-1414--7-77--7-77--11-1111--14-1414--14-1414
D--------------------------------------------------------------------
G--------------------------------------------------------------------

Last Chorus

E-777-999-111111-121212-141414
A-----------------------------
D-----------------------------
G-----------------------------

E-------------------------------------------------------------------------------------
A-7-77--7-77--11-1111--11--1111--4-44--4-44--222-444-666-777-999-222-444-666-777-999-7
D-------------------------------------------------------------------------------------
G-------------------------------------------------------------------------------------












            
Submit corrections

↑ Back to top | Tablatures and chords for acoustic guitar and electric guitar, ukulele, drums are parodies/interpretations of the original songs. You may use it for private study, scholarship, research or language learning purposes only