Home » B » Black Flag »

Black Flag - The Swinging Man Tabs

Artists:  A B C D E F G H I J K L M N O P Q R S T U V W X Y Z # 

The Swinging Man Tabs

(ver. 1) Click to play this song!
Black Flag
[Main Riff]
e|-------------------------------------|
B|-----4------4-------4----4-----------|
G|-5---4--5---4---5---4-5--4-----------|
D|-4------4-------4-----4--------------|
A|-------------------------------------|
E|---4------4-------4----4-------------|

e|-------------------------------------|
B|-------2--------2--------2--------2--|
G|--3----2--3-----2--3-----2--3-----2--|
D|--2-------2--------2--------2--------|
A|-------------------------------------|
E|----2--------2--------2--------2-----|
            
Submit corrections

↑ Back to top | Tablatures and chords for acoustic guitar and electric guitar, ukulele, drums are parodies/interpretations of the original songs. You may use it for private study, scholarship, research or language learning purposes only