Home » B » Black Flag »

Black Flag - Room Tabs

Artists:  A B C D E F G H I J K L M N O P Q R S T U V W X Y Z # 

Room Tabs

(ver. 1) Click to play this song!
Black Flag
ROOM 13 - Black Flag 


verse 
1------------------------------------- 
2--------------------*3-3-3-3-3-3----- 
3--------------------*2-2-2-2-2-2----- x4 
4------------------------------------- 
5---6-6-6-6-6------------------------- 
6---4-4-4-4-4------------------------- 

change 
1---------------------x-x-x-x-x-x----- 
2---------------------x-x-x-x-x-x----- 
3---------------------x-x-x-x-x-x----- 
4---6-6-6-6-6---------x-x-x-x-x-x----- x2 
5---4-4-4-4-4---------x-x-x-x-x-x----- 
6---------------------x-x-x-x-x-x----- 

chorus 
1---------------------------------------------- 
2---------------------------------------------- 
3---------------------------------------------- x3 
4---------------------------------------------- 
5---5-5-5-5-8-8-8-8-7-7-7-7-6-6-6-6------------ 
6---3-3-3-3-6-6-6-6-5-5-5-5-4-4-4-4------------ 
            
Submit corrections

↑ Back to top | Tablatures and chords for acoustic guitar and electric guitar, ukulele, drums are parodies/interpretations of the original songs. You may use it for private study, scholarship, research or language learning purposes only