Home » B » Black Flag »

Black Flag - My Rules Tabs

Artists:  A B C D E F G H I J K L M N O P Q R S T U V W X Y Z # 

My Rules Tabs

(ver. 1) Click to play this song!
Black Flag
Intro]
 
e|-----------------------|
B|-----------------------|
G|---999----77-----------|
D|---999-99-77-77-5555---|
A|---777-99-55-77-5555---|
E|-------77----55-3333---|
 
 
[Verse] I don't need a break from you...
 
e|---------------------|
B|---------------------|
G|------77------1010---| x4
D|---77-77-1010-1010---|
A|---77-55-1010--8-8---|
E|---55-----8-8--------|
 
 
[Chorus] I've got enough rules of my own, pushing on me!
 
e|-------------------------|
B|-------------------------|
G|---4/999999--------------|
D|---4/999999-xxxx-55555---|
A|---2/777777-xxxx-55555---|
E|------------xxxx-33333---|
 
e|-----------------------------|
B|-----------------------------|
G|---4/999999------5-5-5-5-5---|
D|---4/999999-xxxx-5-5-5-5-5---|
A|---2/777777-xxxx-3-3-3-3-3---|
E|------------xxxx-------------|
 
 
[Chorus 2] I've got enough rules of my own...
 
e|-------------------------|
B|-------------------------|
G|---4/999999--------------|
D|---4/999999-xxxx-55555---|
A|---2/777777-xxxx-55555---|
E|------------xxxx-33333---|
 
e|-----------------------|
B|-----------------------|
G|---999----77-----------|
D|---999-99-77-77-5555---|
A|---777-99-55-77-5555---|
E|-------77----55-3333---|
            
Submit corrections

↑ Back to top | Tablatures and chords for acoustic guitar and electric guitar, ukulele, drums are parodies/interpretations of the original songs. You may use it for private study, scholarship, research or language learning purposes only