Home » B » Black Flag »

Black Flag - Forever Time Tabs

Artists:  A B C D E F G H I J K L M N O P Q R S T U V W X Y Z # 

Forever Time Tabs

(ver. 1) Click to play this song!
Black Flag
Band: Black Flag

				X2
e||-------------------------------------||
B||-------------------------------------||
G||*-----------------------------------*||
D||*-10—-10-----------10—-10-----------*||
A||--10--10---9-9-8-7-10--10---9-9-8-7--||
E||--8-—-8------------8-—-8-------------||

										X2
e||----------------------------------------------||
B||----------------------------------------------||
G||*--------------------------------------------*||
D||*-5-x5-------5-x5-------5-x5-------5-x5------*||
A||--5-x5—4-4\--5-x5—4-4\--5-x5—4-4\--5-x5—4-4\--||
E||--3-x3-------3-x3-------3-x3-------3-x3-------||

e|--------------------------------------------|
B|--------------------------------------------|
G|--------------------------------------------|
D|-8-x8-------8-x8-------8-x8-------8-x8------|
A|-8-x8-7-7\--8-x8-7-7\--8-x8-7-7\--8-x8-7-7\-|
E|-6-x6-------6-x6-------6-x6-------6-x6------|

e|--------------------------------------------|
B|--------------------------------------------|
G|--------------------------------------------|
D|-5-x5-------5-x5-------5-x5-------5-x5------|
A|-5-x5—4-4\--5-x5—4-4\--5-x5—4-4\--5-x5—4-4\-|
E|-3-x3-------3-x3-------3-x3-------3-x3------|

Notation
\		slide down
x		mute
            
Submit corrections

↑ Back to top | Tablatures and chords for acoustic guitar and electric guitar, ukulele, drums are parodies/interpretations of the original songs. You may use it for private study, scholarship, research or language learning purposes only