» » »

Black Dahlia Murder - Paint It Black Tabs

Artists:  A B C D E F G H I J K L M N O P Q R S T U V W X Y Z # 

Paint It Black Tabs

(ver. 2) Click to play this song!
Black Dahlia Murder
 Rating:
4/5 (4 votes)

 Paint It Black lessons Tabs too difficult? Try these video lessons and learn fast
 
                The Black Dahlia Murder - "Paint It Black"

Tuning: CGCFAD (drop C)
.  - palm mute
h  - hammer on
p  - pull off
"  - tremolo pick
~  - vibrato
() – let ring
xx – pick slide

Intro
00:00 - 00:07
D|----------------------------------------------|
A|----------------------------------------------|
F|7--9--10-12-10-9--7--7--6--7--9--6h7h9--9p7-6-|
C|0--0--0--0--0--0--0--0--0--0--0--0------0---0-|
G|----------------------------------------------|
C|----------------------------------------------|

00:08 - 00:17
 |GUITAR 1
D|-------------------------------------------|---------------------------|
A|-------------------------------------------|---------------------------|
F|-------------------------------------------|---------------------------|
C|8-7--8-10--0---------------------(0)-------|-------5-------------------|
G|8-7--8-10--0---------------------(0)-------|-5-7-8---8-7-5-5-4-5-7-5-4-|
C|8-7--8-10--0---------------------(0)xxxxxxx|---------------------------|
 |                                             " " " " " " " " " " " " "
 |GUITAR 2
D|-------------------------------------------|---------------------------|
A|-------------------------------------------|---------------------------|
F|-------------------------------------------|---------------------------|
C|--------------------5----------------------|-------5-------------------|
G|--------------5-7-8---8-7-5-5-4-5-7-5-4----|-5-7-8---8-7-5-5-4-5-7-5-4-|
C|-------------------------------------------|---------------------------|
                " " " " " " " " " " " " "      " " " " " " " " " " " " "
00:18 - 00:24
 |GUITAR 1
D|-------------------------------------|-------------------------------------|
A|-------------------------------------|-------------------------------------|
F|-------------------------------------|-------------------------------------|
C|-------------------------------------|-------------------------------------|
G|---5-3-3p0----3----5----5-4-5-7-5-4-5|---5-3-3p0----3----5----5-4-5-7-5-4-5|
C|00---------33---55---77--7-7---------|00---------33---55---77--7-7---------|
 |..         ..   ..   ..  . .  " " " " ..         ..   ..   ..  . .  " " " "
 |
 |GUITAR 2
D|-------------------------------------|-------------------------------------|
A|-------------------------------------|-------------------------------------|
F|-------------------------------------|-------------------------------------|
C|-------------------------------------|-------------------------------------|
G|---5-3-3p0----3----5----5-4-5-7-5-4-5|---5-3-3p0----3----5----5-4-5-7-5-4-5|
C|00---------33---55---77--7-7---------|00---------33---55---77--7-7---------|
  ..         ..   ..   ..  . .  " " " " ..         ..   ..   ..  . .  " " " "

00:25 - 00:32
 |GUITAR 1
d|---------------------------|---------------------------|
a|---------------------------|---------------------------|
f|---------------------------|---------------------------|
C|-------5-------------------|-------5-------------------|
G|-5-7-8---8-7-5-5-4-5-7-5-4~|-5-7-8---8-7-5-5-4-5-7-5-4~|
C|0-0-0-0-0-0-0-0-0-0-0-0-0--|0-0-0-0-0-0-0-0-0-0-0-0-0--|
 |. . . . . . . . . . . . .   . . . . . . . . . . . . . 
 | 
 |GUITAR 2
D|---------------------------|---------------------------|
A|---------------------------|---------------------------|
F|---------------------------|---------------------------|
C|-------5-------------------|-------5-------------------|
G|-5-7-8---8-7-5-5-4-5-7-5-4~|-5-7-8---8-7-5-5-4-5-7-5-4~|
C|0-0-0-0-0-0-0-0-0-0-0-0-0--|0-0-0-0-0-0-0-0-0-0-0-0-0--|
  . . . . . . . . . . . . .   . . . . . . . . . . . . .

00:33 - 00:41
 |GUITAR 1
D|-------------------------------------|-------------------------------------|
A|-------------------------------------|-------------------------------------|
F|-------------------------------------|-------------------------------------|
C|-------------------------------------|-------------------------------------|
G|---5-3-3p0----3----5----5-4-5-7-5-4-5|---5-3-3p0----3----5----5-4-5-7-5-4-5|
C|00---------33---55---77--7-7---------|00---------33---55---77--7-7---------|
 |..         ..   ..   ..  . .  " " " " ..         ..   ..   ..  . .  " " " "
 |
 |GUITAR 2
D|-------------------------------------|-------------------------------------|
A|-------------------------------------|-------------------------------------|
F|-------------------------------------|-------------------------------------|
C|-------------------------------------|-------------------------------------|
G|---5-3-3p0----3----5----5-4-5-7-5-4-5|---5-3-3p0----3----5----5-4-5-7-5-4-5|
C|00---------33---55---77--7-7---------|00---------33---55---77--7-7---------|
  ..         ..   ..   ..  . .  " " " " ..         ..   ..   ..  . .  " " " "

00:42 - 00:51
 |GUITAR 1                               x2
D|------------------|-----------------------------------------|
A|------------------|-----------------------------------------|
F|------------------|-----------------------------------------|
C|------------------|-0000-0000-0000-0000-0000-0000-0000-0000-|
G|-4h5p4-7-4h5p4-8--|-0000-0000-0000-0000-0000-0000-0000-0000-|
C|------------------|-0000-0000-0000-0000-0000-0000-0000-0000-|
 |                    .... .... .... .... .... .... .... ....
 |GUITAR 2
D|------------------|-----------------------------------------|
A|------------------|-----------------------------------------|
F|------------------|-----------------------------------------|
C|----------------7-|-----------5-----------------------------|
G|-7h8p7-10-7h8p7---|---5--7--8---8--7--5-5--4-5-7--5-4-------|
C|------------------|-----------------------------------------|
                        "  "  " " "  "  " "  " " "  " "
                                         x2
00:52 - 01:01
 |GUITAR 1
D|---------------------------|---------------------------|
A|---------------------------|---------------------------|
F|---------------------------|---------------------------|
C|-------5-------------------|-------5-------------------|
G|-5-7-8---8-7-5-5-4-5-7-5-4-|-5-7-8---8-7-5-5-4-5-7-5-4-|
C|---------------------------|---------------------------|
 | " " " " " " " " " " " " "   " " " " " " " " " " " " "
 |
 |GUITAR 2
D|---------------------------|---------------------------|
A|---------------------------|---------------------------|
F|---------------------------|---------------------------|
C|---5-7-8-7-5---------5-----|---5-7-8-7-5---------5-----|
G|-8-----------8-8-7-8---8-7-|-8-----------8-8-7-8---8-7-|
C|---------------------------|---------------------------|
   " " " " " " " " " " " " "   " " " " " " " " " " " " "

01:02 - 01:11
 |GUITAR 1
D|-----------------------------------------|
A|-----------------------------------------|
F|-----------------------------------------| x2
C|-0000-0000-0000-0000-0000-0000-0000-0000-|
G|-0000-0000-0000-0000-0000-0000-0000-0000-|
C|-0000-0000-0000-0000-0000-0000-0000-0000-|
 | .... .... .... .... .... .... .... ....
 |
 |GUITAR 2
D|-----------------------------------------|
A|-----------------------------------------|
F|-----------------------------------------| x2
C|-0000-0000-0000-0000-0000-0000-0000-0000-|
G|-0000-0000-0000-0000-0000-0000-0000-0000-|
C|-0000-0000-0000-0000-0000-0000-0000-0000-|
   .... .... .... .... .... .... .... ....

01:12 - 01:21
 |GUITAR 1
D|---------------------------------|-----------------------------|
A|---------------------------------|-----------------------------|
F|---------------------------------|-----------------------------|
C|-0------------(0)7------------(7)|-0---------------7--777777777|
G|-0------------(0)7------------(7)|-0---------------7--777777777|
C|-0------------(0)7------------(7)|-0---------------7--777777777|
 |                                                      .........
 |GUITAR 2(w/ wah)
D|---------------------------------|-----------------------------|
A|---------------------------------|-----------------------------|
F|---------------------------------|-----------------------------|
C|---------5-----------------------|---------5-------------------|
G|---5-7-8---8-7-5-5-4-5-7-5-4~----|---5-7-8---8-7-5-5-4-5-7-5-4~|
C|---------------------------------|-----------------------------|

01:22 - 01:41
 |GUITAR 1
D|---------------------------|----------------------------------|
A|---------------------------|----------------------------------|
F|---------------------------|----------------------------------| x2
C|-7--5----------------------|----------------------------------|
G|-5--3-----3--3-3----5--5-5-|---5-4-5-7-5-4-5----5-4-5-7-5-4-5-|
C|-7--5--33---3-3--55---5-5--|-77-7-7-7-7-7-7---77-7-7-7-7-7-7--|
 |       ..   . .  ..   . .    .. . . . . . .   .. . . . . . .
 |
 |GUITAR 2
D|---------------------------|----------------------------------|
A|---------------------------|----------------------------------|
F|---------------------------|----------------------------------| x2
C|-7--5----------------------|----------------------------------|
G|-5--3-----3--3-3----5--5-5-|---5-4-5-7-5-4-5----5-4-5-7-5-4-5-|
C|-7--5--33---3-3--55---5-5--|-77-7-7-7-7-7-7---77-7-7-7-7-7-7--|
         ..   . .  ..   . .    .. . . . . . .   .. . . . . . .

01:42 - 01:51
 |GUITAR 1
D|--------------------------------------|--------------------------------------|
A|--------------------------------------|--------------------------------------|
F|--------------------------------------|--------------------------------------|
C|0-0000-0000-0000-0-7-7777-7777-7777-7-|-0-0000-0000-0000-0-7-7777-7777-7777-7|
G|0-0000-0000-0000-0-7-7777-7777-7777-7-|-0-0000-0000-0000-0-7-7777-7777-7777-7|
C|0-0000-0000-0000-0-7-7777-7777-7777-7-|-0-0000-0000-0000-0-7-7777-7777-7777-7|
 |. .... .... .... . . .... .... .... .   . .... .... .... . . .... .... .... .
 |
 |GUITAR 2
D|--------------------------------------|--------------------------------------|
A|--------------------------------------|--------------------------------------|
F|--------------------------------------|--------------------------------------|
C|0-0000-0000-0000-0-7-7777-7777-7777-7-|-0-0000-0000-0000-0-7-7777-7777-7777-7|
G|0-0000-0000-0000-0-7-7777-7777-7777-7-|-0-0000-0000-0000-0-7-7777-7777-7777-7|
C|0-0000-0000-0000-0-7-7777-7777-7777-7-|-0-0000-0000-0000-0-7-7777-7777-7777-7|
  . .... .... .... . . .... .... .... .   . .... .... .... . . .... .... .... .

01:52 - 02:01
 |GUITAR 1
D|--------------------------------------|--------------------------------------|
A|--------------------------------------|--------------------------------------|
F|--------------------------------------|--------------------------------------|
C|0-0000-0000-0000-0-7-7777-7777-7777-7-|-0-0000-0000-0000-0-7-7777-7777-7777-7|
G|0-0000-0000-0000-0-7-7777-7777-7777-7-|-0-0000-0000-0000-0-7-7777-7777-7777-7|
C|0-0000-0000-0000-0-7-7777-7777-7777-7-|-0-0000-0000-0000-0-7-7777-7777-7777-7|
 | . .... .... .... . . .... .... .... .   . .... .... .... . . .... .... .... .
 |
 |GUITAR 2
D|--------------------------------------|--------------------------------------|
A|--------------------------------------|--------------------------------------|
F|--------------------------------------|--------------------------------------|
C|------7---------8--7------------------|-------7---------8--7-----------------|
G|8--------10----------------10--8--7---|-8--------10------------------10-8-7--|
C|--------------------------------------|--------------------------------------|

02:02 - End
 |GUITAR 1                                 x 13
D|----------------------------|---------------------------||
A|----------------------------|---------------------------||
F|----------------------------|---------------------------||
C|-0------0-0-0-0-0-----------|-------5-------------------||
G|-0------0-0-0-0-0-----------|-5-7-8---8-7-5-5-4-5-7-5-4-||
C|-0------0-0-0-0-0-----------|---------------------------||
 | .      . . . . .             " " " " " " " " " " " " "
 |
 |GUITAR 2
D|----------------------------|---------------------------||
A|----------------------------|---------------------------||
F|----------------------------|---------------------------||
C|--------5-------------------|-------5-------------------||
G|--5-7-8---8-7-5-5-4-5-7-5-4-|-5-7-8---8-7-5-5-4-5-7-5-4-||
C|----------------------------|---------------------------||
    " " " " " " " " " " " " "   " " " " " " " " " " " " "
                                           x 13




Lyrics:
I see a red door and I want it painted black
No colors anymore I want them to turn black
I see the girls walk by dressed in their summer clothes
I have to turn my head until my darkness goes
I see a line of cars and they're all painted black
With flowers and my love both never to come back
I see people turn their heads and quickly look away
Like a new born baby it just happens ev'ry day
Paint It Black!
Black!
No more will my green sea go turn a deeper blue
I could not foresee this thing happening to you
If I look hard enough into the setting sun
My love will laugh with me before the morning comes
I wanna see it painted, painted black
Black as night, black as coal
I want to see the sun blotted out from the world, from the sky
            
Submit corrections


        Paint It Black lessons Hard to play? Try these video lessons and learn fast Paint It Black lessons
        
↑ Back to top | Tablatures and chords for acoustic guitar and electric guitar, ukulele, drums are parodies/interpretations of the original songs. You may use it for private study, scholarship, research or language learning purposes only