Home » B » Black Dahlia Murder »

Black Dahlia Murder - Paint It Black Bass

Artists:  A B C D E F G H I J K L M N O P Q R S T U V W X Y Z # 

Paint It Black Bass

(ver. 1) Click to play this song!
Black Dahlia Murder
 Rating:
4/5 (4 votes)
                Intro (After Clean Guitar Part)        
F|--------------|------------------------------|
C|--------------|------------------------------|
G|-1h0-1h3------|--5-7-8-10-8-7-55-4h5-7-5h444-|
C|----------0---|------------------------------|

Riff 1 x2                         
F|---------------------------------------------|
C|---------------------------------------------|
G|-----5h33-----3----3----5-4-5-7-5-4-5--------|
C|--00-------00---00---00----------------------|
                   (:17-:25)
                   
Riff 2 x2
F|---------------------------------------------|
C|---------------------------------------------|
G|--5-7-8-10-8-7-55-4h5-7-5h444----------------|
C|---------------------------------------------|

Riff 1 x2                  
  
Riff 1a.
F|--------------------------|
C|--------------------------|
G|----5/-7/-8/-10/----------|
C|--------------------------|
  
Riff 3a.
F|-----------------------------------------------------------------|
C|-----------------------------------------------------------------|
G|-----------------------------------------------------------------|
C|-000-000-000-000-000-000-000-000-000-000-000-000-000-000-000-000-|                 

Riff 3b.
F|---------------------|
C|---------------------|(play constant "zeros" until song reverts back
G|---------------------|  to Zero "Triplets" or riff 3a.)
C|---0000000000--------|                      

Riff 3a.
F|-----------------------------------------------------------------|
C|-----------------------------------------------------------------|
G|-----------------------------------------------------------------|
C|-000-000-000-000-000-000-000-000-000-000-000-000-000-000-000-000-|

Riff 4a.    Riff 4b.     Riff 4c.                                 B
F|----------|-----------|---------------------------|----------------|
C|----------|-----------|---------------------------|----------------|
G|----------|-5555555---|-(5)-(3)----3---3----5---5-|-5-4-5-7-5-4-5--|
C|-0~~-(7)-0|-----------|---------00---0---00---0---|----------------|
 (1:12-1:17) (1:19-1:22)        (1:22-1:31)          ^^^^ times 2 ^^^ 

(repeat riff 4c. two times total)

Riff 5 x2
F|-----------------------------------------------------------------------|
C|-----------------------------------------------------------------------|
G|-----------------------------------------------------------------------| 
C|-00000000000-777777777777-000000000-77777777777-00000000000-7777777777-|

Outro Riff
F|-----------------------------|
C|-----------------------------| x8
G|--5-7-8-10-8-7-55-4h5-7-5h44-|
C|-----------------------------|
            
Submit corrections

↑ Back to top | Tablatures and chords for acoustic guitar and electric guitar, ukulele, drums are parodies/interpretations of the original songs. You may use it for private study, scholarship, research or language learning purposes only