Home » B » Bittersweet »

Bittersweet - Burn Berlin Down Bass

Artists:  A B C D E F G H I J K L M N O P Q R S T U V W X Y Z # 

Burn Berlin Down Bass

(ver. 2) Click to play this song!
Bittersweet

INTRO -BASS WITH DRUM

 G|------------------------------------|
 D|------------------------------------|
 A|------------------------------------|
 E|--3-----5-----7-----7-7-7-7-7-------|


MUSIC INTRO

 G|--------------------------------|
 D|------------------5---3-4-3-----|
 A|--7-7-7-789---------------------| 
 E|-------------5-5----------------|

 G|--------------------------------|
 D|------------------5---3-4-------|
 A|--7-7-7-789---------------------| 
 E|-------------5-5----------------|

 G|--------------------------------------------|
 D|--------------------------------------------|
 A|--------------------------------------------|
 E|--3-3-3-3-3-3-3-3-3-3/7----77---7-77-----7--|


VERSE

 G|--------------------------------|
 D|------------------5---3-4-3-----|
 A|--7-7-7-789---------------------|  
 E|-------------5-5----------------|

 G|--------------------------------|
 D|------------------5---3-4-------|
 A|--7-7-7-789---------------------| 
 E|-------------5-5----------------|

 G|------------------------------------------|
 D|------------------------------------------|
 A|------------------------------------------|
 E|--3-3-3-3-3-3-3-3-3-3/7----77---7-77---7--|



PRE CHORUS

 G|-----------------------------------------------------------|
 D|-----------------------------------------------------------|
 A|-----------------------------------------------------------|
 E|--3-3-3-3-3-3-3-3-3-3/7----77---7-77---7-77---7-7-7-7-7-7--|


CHORUS
 
 G|--------------------------------|
 D|------------------5---3-4-3-----|
 A|--7-7-7-789---------------------|  
 E|-------------5-5----------------|

 G|--------------------------------|
 D|------------------5---3-4-------|
 A|--7-7-7-789---------------------| 
 E|-------------5-5----------------|

 G|-----------------------------------------------------------|
 D|-----------------------------------------------------------|
 A|-----------------------------------------------------------|
 E|--3-3-3-3-3-3-3-3-3-3/7----77---7-77---7-77---7-7-7-7-7-7--|


ENDING

 G|---------------------------------------------------|
 D|---------------------------------------------------|
 A|---------------------------------------------------| 10X
 E|---3-3-3-3-3-3-3-3-33/9--9-9-9-9-9-9-9-9-99/3------|

 G|--------------------------|
 D|--------------------------|
 A|--------------------------|
 E|---3-3-3-3-3-3-3-3-33/9---|
            
Submit corrections

↑ Back to top | Tablatures and chords for acoustic guitar and electric guitar, ukulele, drums are parodies/interpretations of the original songs. You may use it for private study, scholarship, research or language learning purposes only