Home » B » Bittersweet »

Bittersweet - Capital E Tabs

Artists:  A B C D E F G H I J K L M N O P Q R S T U V W X Y Z # 

Capital E Tabs

(ver. 1) Click to play this song!
Bittersweet
Bittersweet : Capital E
Tunning     : Stabdard (EADGBe)


[INTRO]
e|--------------------------------------|
B|--------------------------------------|
G|--------------------------------------|
D|--------------------------------------|
A|-0-3-5-7-0-7-5-353--------------------|x4
E|--------------------------------------|

[VERSE] x2
e|--------------------------------------|
B|--------------------------------------|
G|--------------------------------------|
D|----------7--------------7------------|
A|----------7--------------7------------|
E|----------5--------------5------------|
  "When I'm crying, you're laughing..."

e|--------------------------------------|
B|--------------------------------------|
G|--------------------------------------|
D|------7----7----7----7---777----------|
A|------7----7----7----7---777----------|
E|------5----5----5----5---555----------|
  "You think that it's all has been..."

e|-1111111111111111---------------------|
B|-1111111111111111---------------------|
G|-2222222222222222---------------------|
D|-3333333333333333---------------------|
A|-3333333333333333---------------------|
E|-1111111111111111---------------------|
  "Decided..."      

e|-3333333333333333---------------------|
B|-3333333333333333---------------------|
G|-4444444444444444---------------------|
D|-5555555555555555---------------------|
A|-5555555555555555---------------------|
E|-3333333333333333---------------------|
   "But it's all coming back to you..."

e|--------------------------------------|
B|--------------------------------------|
G|--------------------------------------|
D|-7777777777777777---------------------|
A|-7777777777777777---------------------|
E|-5555555555555555---------------------|
  "You think it's alright!"

Bass plays this, NOT guitar:
G|--------------------------------------|
D|--------------------------------------|
A|-0-3-5-7-0-7-5-353--------------------|
E|--------------------------------------|


[CHORUS] x2
e|-1111111111111111---------------------|
B|-1111111111111111---------------------|
G|-2222222222222222---------------------|
D|-3333333333333333---------------------|
A|-3333333333333333---------------------|
E|-1111111111111111---------------------|
  "Cause the days are coming clearly..."

e|-3333333333333333---------------------|
B|-3333333333333333---------------------|
G|-4444444444444444---------------------|
D|-5555555555555555---------------------|
A|-5555555555555555---------------------|
E|-3333333333333333---------------------|
  "The sun is shining early..."

e|--------------------------------------|
B|--------------------------------------|
G|--------------------------------------|
D|-7777777777777777---------------------|
A|-7777777777777777---------------------|
E|-5555555555555555---------------------|
  "We need a ride..."

Repeat [INTRO] [VERSE] [CHORUS]
            
Submit corrections

↑ Back to top | Tablatures and chords for acoustic guitar and electric guitar, ukulele, drums are parodies/interpretations of the original songs. You may use it for private study, scholarship, research or language learning purposes only