Home » B » Billy Joel »

Billy Joel - It's Still Rock And Roll To Me Tabs

Artists:  A B C D E F G H I J K L M N O P Q R S T U V W X Y Z # 

It's Still Rock And Roll To Me Tabs

(ver. 3) Click to play this song!
Billy Joel
 Rating:
4/5 (4 votes)
                its still rock n roll to me sax solo


billy joel





sax solo
e:----------------------------------------------------------------------------|
B:----------------------------------------------------------------------------|
G:----------19-19-19-19-19b-19--17-17----17----17-19b-19b-19b-17-19-17--------|
D:-17-17-20---------------------------19----19-------------------------19b~~~-|
A:----------------------------------------------------------------------------|
E:----------------------------------------------------------------------------|

e:---------------------------------------------------------------------|
B:---------------------------------------------------------------------|
G:----------19-19-19-19-19b-19--17-17----17----17-19b-19b-19b-17-19-17-|
D:-17-17-20---------------------------19----19-------------------------|
A:---------------------------------------------------------------------|
E:---------------------------------------------------------------------|


e:------------------------------------------|
B:------------------------------------------|
G:-17-15-15----15-17--19-17-17----17-19-19b-|
D:----------17-----------------19-----------|
A:------------------------------------------|
E:------------------------------------------|
            
Submit corrections

↑ Back to top | Tablatures and chords for acoustic guitar and electric guitar, ukulele, drums are parodies/interpretations of the original songs. You may use it for private study, scholarship, research or language learning purposes only