» » »

Billy Joel - It's Still Rock And Roll To Me Tabs

Artists:  A B C D E F G H I J K L M N O P Q R S T U V W X Y Z # 

It's Still Rock And Roll To Me Tabs

(ver. 1) Click to play this song!
Billy Joel
 Rating:
4/5 (4 votes)


 It's Still Rock And Roll To Me lessons Tabs too difficult? Try these video lessons and learn fast
 
                repeat this 4x
e|----------------------------|
B|-5---5--5---5--5---5--5---5-|
G|-5---5--5---5--5---5--5---5-|
A|-3---3--3---3--3---3--3---3-|
E|----------------------------|
pm----------------------------

|----------------------------|------------------------------|
|----------------------------|------------------------------|
|-5---5--5---5--5---5--5---5-|------------------------------|
|-5---5--5---5--5---5--5---5-|--2---2--2---2--2---2--2---2--|
|-3---3--3---3--3---3--3---3-|--2---2--2---2--2---2--2---2--|
|----------------------------|--0---0--0---0--0---0--0---0--|
pm----------------------------------------------------------

|-----------------------------|-----------------------------|
|-----------------------------|-----------------------------|
|--3---3--3---3--3---3--3---3-|-----------------------------|
|--3---3--3---3--3---3--3---3-|--3---3--3---3--3---3--3---3-|
|--1---1--1---1--1---1--1---1-|--3---3--3---3--3---3--3---3-|
|-----------------------------|--1---1--1---1--1---1--1---1-|


|-----------------------------|-----------------------------|
|-----------------------------|-----------------------------|
|-----------------------------|--2---2--2---2--2---2--2---2-|
|--2---2--2---2--2---2--2---2-|--2---2--2---2--2---2--2---2-|
|--2---2--2---2--2---2--2---2-|--0---0--0---0--0---0--0---0-|
|--0---0--0---0--0---0--0---0-|-----------------------------|

|-----------------------------|-----------------------------|
|-----------------------------|-----------------------------|
|-----------------------------|--7---7--7---7---------------|
|--2---2--2---2--2---2--2---2-|--7---7--7---7--5---5--5---5-|
|--2---2--2---2--2---2--2---2-|--5---5--5---5--5---5--5---5-|
|--0---0--0---0--0---0--0---0-|----------------3---3--3---3-|


|-----------------------------|-----------------------------|
|-----------------------------|-----------------------------|
|--5---5--5---5---------------|--3---3--3---3---------------|
|--5---5--5---5--2---2--2---2-|--3---3--3---3--3---3--3---3-|
|--3---3--3---3--2---2--2---2-|--1---1--1---1--3---3--3---3-|
|----------------0---0--0---0-|----------------1---1--1---1-|
pm----------------------------------------------------------

|-----------------------------|-----------------------------|
|-----------------------------|-----------------------------|
|--2---2--2---2---------------|--5---5--5-5-5--5-5-5--5-5-5-|
|--2---2--2---2--5---5--5---5-|--5---5--5-5-5--5-5-5--5-5-5-|
|--0---0--0---0--5---5--5---5-|--3---3--3-3-3--3-3-3--3-3-3-|
|----------------3---3--3---3-|-----------------------------|
pm----------------------------------------------------------

|-----------------------------|
|-----------------------------|
|--5-5-5--5-5-5--5-5-5--5-5-5-|
|--5-5-5--5-5-5--5-5-5--5-5-5-|
|--3-3-3--3-3-3--3-3-3--3-3-3-|
|-----------------------------|
-Repeat the whole phrase with the exception of the intro-

|-----------------------------|-----------------------------|
|-----------------------------|-----------------------------|
|-----------------------------|-----------------------------|
|--5---5--5---5--5---5--5---5-|--3---3--3---3--3---3--3---3-|
|--5---5--5---5--5---5--5---5-|--3---3--3---3--3---3--3---3-|
|--3---3--3---3--3---3--3---3-|--1---1--1---1--1---1--1---1-|


|-----------------------------|-----------------------------|
|-----------------------------|-----------------------------|
|-----------------------------|--2---2--2---2--2---2--2---2-|
|--2---2--2---2--2---2--2---2-|--2---2--2---2--2---2--2---2-|
|--2---2--2---2--2---2--2---2-|--0---0--0---0--0---0--0---0-|
|--0---0--0---0--0---0--0---0-|-----------------------------|


|-----------------------------|-----------------------------|
|-----------------------------|-----------------------------|
|-----------------------------|-----------------------------|
|--5---5--5---5--5---5--5---5-|--3---3--3---3--3---3--3---3-|
|--5---5--5---5--5---5--5---5-|--3---3--3---3--3---3--3---3-|
|--3---3--3---3--3---3--3---3-|--1---1--1---1--1---1--1---1-|


|-----------------------------|-----------------------------|
|-----------------------------|-----------------------------|
|-----------------------------|-----------------------------|
|--2---2--2---2--2---2--2---2-|--6---6--6---6--6---6--6---6-|
|--2---2--2---2--2---2--2---2-|--6---6--6---6--6---6--6---6-|
|--0---0--0---0--0---0--0---0-|--4---4--4---4--4---4--4---4-|


|------------------------------|------------------------------|----|
|------------------------------|------------------------------|----|
|--8---8--8---8--8----8--8---8-|--10--10-10--10-10--10-10--10-|--5-|
|--8---8--8---8--8----8--8---8-|--10--10-10--10-10--10-10--10-|--5-|
|--6---6--6---6--6----6--6---6-|--8---8--8---8--8---8--8---8--|--3-|
|------------------------------|------------------------------|----|

|----------------------------|------------------------------|
|----------------------------|------------------------------|
|-5---5--5---5--5---5--5---5-|------------------------------|
|-5---5--5---5--5---5--5---5-|--2---2--2---2--2---2--2---2--|
|-3---3--3---3--3---3--3---3-|--2---2--2---2--2---2--2---2--|
|----------------------------|--0---0--0---0--0---0--0---0--|
pm----------------------------------------------------------

|-----------------------------|-----------------------------|
|-----------------------------|-----------------------------|
|--3---3--3---3--3---3--3---3-|-----------------------------|
|--3---3--3---3--3---3--3---3-|--3---3--3---3--3---3--3---3-|
|--1---1--1---1--1---1--1---1-|--3---3--3---3--3---3--3---3-|
|-----------------------------|--1---1--1---1--1---1--1---1-|
pm----------------------------------------------------------

|-----------------------------|-----------------------------|
|-----------------------------|-----------------------------|
|-----------------------------|--2---2--2---2--2---2--2---2-|
|--2---2--2---2--2---2--2---2-|--2---2--2---2--2---2--2---2-|
|--2---2--2---2--2---2--2---2-|--0---0--0---0--0---0--0---0-|
|--0---0--0---0--0---0--0---0-|-----------------------------|


|-----------------------------|-----------------------------|
|-----------------------------|-----------------------------|
|-----------------------------|--7---7--7---7---------------|
|--2---2--2---2--2---2--2---2-|--7---7--7---7--5---5--5---5-|
|--2---2--2---2--2---2--2---2-|--5---5--5---5--5---5--5---5-|
|--0---0--0---0--0---0--0---0-|----------------3---3--3---3-|


|-----------------------------|-----------------------------|
|-----------------------------|-----------------------------|
|--5---5--5---5---------------|--3---3--3---3---------------|
|--5---5--5---5--2---2--2---2-|--3---3--3---3--3---3--3---3-|
|--3---3--3---3--2---2--2---2-|--1---1--1---1--3---3--3---3-|
|----------------0---0--0---0-|----------------1---1--1---1-|
pm----------------------------------------------------------

|-----------------------------|-----------------------------|
|-----------------------------|-----------------------------|
|--2---2--2---2---------------|--5---5--5-5-5--5-5-5--5-5-5-|
|--2---2--2---2--5---5--5---5-|--5---5--5-5-5--5-5-5--5-5-5-|
|--0---0--0---0--5---5--5---5-|--3---3--3-3-3--3-3-3--3-3-3-|
|----------------3---3--3---3-|-----------------------------|
pm----------------------------------------------------------

|-----------------------------|
|-----------------------------|
|--5-5-5--5-5-5--5-5-5--5-5-5-|
|--5-5-5--5-5-5--5-5-5--5-5-5-|
|--3-3-3--3-3-3--3-3-3--3-3-3-|
|-----------------------------|

|-----------------------------|-----------------------------|
|-----------------------------|-----------------------------|
|-----------------------------|-----------------------------|
|--5---5--5---5--5---5--5---5-|--3---3--3---3--3---3--3---3-|
|--5---5--5---5--5---5--5---5-|--3---3--3---3--3---3--3---3-|
|--3---3--3---3--3---3--3---3-|--1---1--1---1--1---1--1---1-|


|-----------------------------|-----------------------------|
|-----------------------------|-----------------------------|
|-----------------------------|--2---2--2---2--2---2--2---2-|
|--2---2--2---2--2---2--2---2-|--2---2--2---2--2---2--2---2-|
|--2---2--2---2--2---2--2---2-|--0---0--0---0--0---0--0---0-|
|--0---0--0---0--0---0--0---0-|-----------------------------|


|-----------------------------|-----------------------------|
|-----------------------------|-----------------------------|
|-----------------------------|--2---2--2---2--2---2--2---2-|
|--2---2--2---2--2---2--2---2-|--2---2--2---2--2---2--2---2-|
|--2---2--2---2--2---2--2---2-|--0---0--0---0--0---0--0---0-|
|--0---0--0---0--0---0--0---0-|-----------------------------|


|-----------------------------|-----------------------------|
|-----------------------------|-----------------------------|
|-----------------------------|-----------------------------|
|--2---2--2---2--2---2--2---2-|--6---6--6---6--6---6--6---6-|
|--2---2--2---2--2---2--2---2-|--6---6--6---6--6---6--6---6-|
|--0---0--0---0--0---0--0---0-|--4---4--4---4--4---4--4---4-|


|------------------------------|------------------------------|--------|
|------------------------------|------------------------------|--------|
|--8---8--8---8--8----8--8---8-|--10--10-10--10-10--10-10--10-|--5-(5)-|
|--8---8--8---8--8----8--8---8-|--10--10-10--10-10--10-10--10-|--5-(5)-|
|--6---6--6---6--6----6--6---6-|--8---8--8---8--8---8--8---8--|--3-(3)-|
|------------------------------|------------------------------|--------|


|----------------------------|------------------------------|
|----------------------------|------------------------------|
|-5---5--5---5--5---5--5---5-|------------------------------|
|-5---5--5---5--5---5--5---5-|--2---2--2---2--2---2--2---2--|
|-3---3--3---3--3---3--3---3-|--2---2--2---2--2---2--2---2--|
|----------------------------|--0---0--0---0--0---0--0---0--|
pm----------------------------------------------------------

|-----------------------------|-----------------------------|
|-----------------------------|-----------------------------|
|--3---3--3---3--3---3--3---3-|-----------------------------|
|--3---3--3---3--3---3--3---3-|--3---3--3---3--3---3--3---3-|
|--1---1--1---1--1---1--1---1-|--3---3--3---3--3---3--3---3-|
|-----------------------------|--1---1--1---1--1---1--1---1-|
pm----------------------------------------------------------

|-----------------------------|-----------------------------|
|-----------------------------|-----------------------------|
|-----------------------------|--2---2--2---2--2---2--2---2-|
|--2---2--2---2--2---2--2---2-|--2---2--2---2--2---2--2---2-|
|--2---2--2---2--2---2--2---2-|--0---0--0---0--0---0--0---0-|
|--0---0--0---0--0---0--0---0-|-----------------------------|


|-----------------------------|-----------------------------|
|-----------------------------|-----------------------------|
|-----------------------------|--7---7--7---7---------------|
|--2---2--2---2--2---2--2---2-|--7---7--7---7--5---5--5---5-|
|--2---2--2---2--2---2--2---2-|--5---5--5---5--5---5--5---5-|
|--0---0--0---0--0---0--0---0-|----------------3---3--3---3-|


|-----------------------------|-----------------------------|
|-----------------------------|-----------------------------|
|--5---5--5---5---------------|--3---3--3---3---------------|
|--5---5--5---5--2---2--2---2-|--3---3--3---3--3---3--3---3-|
|--3---3--3---3--2---2--2---2-|--1---1--1---1--3---3--3---3-|
|----------------0---0--0---0-|----------------1---1--1---1-|
pm----------------------------------------------------------

|-----------------------------|-----------------------------|
|-----------------------------|-----------------------------|
|--2---2--2---2---------------|--5---5--5-5-5--5-5-5--5-5-5-|
|--2---2--2---2--5---5--5---5-|--5---5--5-5-5--5-5-5--5-5-5-|
|--0---0--0---0--5---5--5---5-|--3---3--3-3-3--3-3-3--3-3-3-|
|----------------3---3--3---3-|-----------------------------|
pm----------------------------------------------------------

|----------------|--------------|--------------|------------|
|----------------|--------------|--------------|------------|
|--5-------------|--3-----------|--------------|--------5---|
|--5------2------|--3-----3-----|--5-----------|--------5---|
|--3------2------|--1-----3-----|--5-----------|--------3---|
|---------0------|--------1-----|--3-----------|------------|
            
Submit corrections



        It's Still Rock And Roll To Me lessons Hard to play? Try these video lessons and learn fast It's Still Rock And Roll To Me lessons
        
↑ Back to top | Tablatures and chords for acoustic guitar and electric guitar, ukulele, drums are parodies/interpretations of the original songs. You may use it for private study, scholarship, research or language learning purposes only