» » »

Billy Joel - We Didn't Start The Fire Tabs

Artists:  A B C D E F G H I J K L M N O P Q R S T U V W X Y Z # 

We Didn't Start The Fire Tabs

(ver. 1) Click to play this song!
Billy Joel
 Rating:
4/5 (4 votes)

 We Didn't Start The Fire lessons Tabs too difficult? Try these video lessons and learn fast
 
                INTRO
|-----------------------------------------------------------------
|-----------------------------------------------------------------
|------------0--2-4----------0--2--4--2--0------0--2--4--2--0-----
|---0--0-0-2---------------2-----------------2--------------------  X2
|-----------------------------------------------------------------
|-----------------------------------------------------------------

VERSE AND CHORUS

G D Am C

(I find open chords sound best)

BRIDGE

Am E Am D

SOLO
(Not 100% sure here. Our violinist did it and I'm not sure how...)

|---12-9---10--7----9h5----------9---9--5--
|-------10-------8-------------8---8-------
|------------------------------------------
|------------------------------------------
|------------------------------------------
|------------------------------------------
            
Submit corrections


        We Didn't Start The Fire lessons Hard to play? Try these video lessons and learn fast We Didn't Start The Fire lessons
        
↑ Back to top | Tablatures and chords for acoustic guitar and electric guitar, ukulele, drums are parodies/interpretations of the original songs. You may use it for private study, scholarship, research or language learning purposes only