Home » B » Bill Withers »

Bill Withers - Use Me Tabs

Artists:  A B C D E F G H I J K L M N O P Q R S T U V W X Y Z # 

Use Me Tabs

(ver. 3) Click to play this song!
Bill Withers
-------------------------------------------------------------------------------
                             Use Me - Bill Withers
-------------------------------------------------------------------------------

Tuning: Standard

Verses

Guitar 1
e|------------------------------------5--5--5--5--5--5--5--5-----|
B|------------------------------------5--5--5--5--5--5--5--5-----|
G|---9--9--9--9--9--9--9--9--9--9-----6--6--6--6--6--6--6--6-----|
D|---9--9--9--9--9--9--9--9--9--9-----7--7--7--7--7--7--7--7-----|
A|---7--7--7--7--7--7--7--7--7--7-----7--7--7--7--7--7--7--7-----|
E|------------------------------------5--5--5--5--5--5--5--5-----| 
just keep playing this over and over again
stop for chorus

Guitar 2
e|----------------------------------------------------------------|
B|----------------------------------------------------------------|
G|--------0--------0-----0----------------------------------------|
D|--0--2----2---0-----2-----2---0-----------2---------------------|
A|---------------------------------0--2--4------------------------|
E|----------------------------------------------------------------|

e|-----------------------------------------------------------------|
B|-----------------------------------------------------------------|
G|--------0--------0-----0-----------------------------------------|
D|--0--2----2---0-----2-----2---0------------2---------------------|
A|----------------------------------0--2--4-----0------------------|
E|-----------------------------------------------------------------|


e|-----------------------------------------------------------------|
B|-----------------------------------------------------------------|
G|--------0--------0-----0---------4--2----------------------------|
D|--0--2----2---0-----2-----2---0----------------------------------|
A|-----------------------------------------------------------------|
E|-----------------------------------------------------------------|

keep playing everything over and over until the chorus
the chorus doesnt have any guitar in it, so you dont need to do anything
play this for all of the verses
            
Submit corrections

↑ Back to top | Tablatures and chords for acoustic guitar and electric guitar, ukulele, drums are parodies/interpretations of the original songs. You may use it for private study, scholarship, research or language learning purposes only