» » »

Biffy Clyro - Diary Of Always Bass

Artists:  A B C D E F G H I J K L M N O P Q R S T U V W X Y Z # 

Diary Of Always Bass

(ver. 2) Click to play this song!
Biffy Clyro
 Rating:
4/5 (4 votes)

 Diary Of Always lessons Tabs too difficult? Try these video lessons and learn fast
 
                Bassist: James Johnston

Listening rather hard, I'm quite sure there is bass playing in this song,
and if not, this works well as an accompaniment.

Key:
~: Let Note Ring
(): Optional Note/Tied Note

[Tuning: Drop D - D,A,D,G]


1:43:
G|-------------------|
D|-------------------|
A|-----------3~---3~-|
D|-5~---5~-----------| [x2]

G|-------------------|
D|-------------------|
A|-------------------|
D|-5~---5~---0~---0~-|


2:23: [Note: I'm quite sure of this, as James plays this part live!]
G|---------------------|
D|---------------------|
A|-7~---5~---3~---(3~)-|
D|---------------------| [x3]

G|----------------------------------|
D|----------------------------------|
A|-7~---5~---3--3-3--3-3--3-3/15-15-|
D|----------------------------------|
            
Submit corrections


        Diary Of Always lessons Hard to play? Try these video lessons and learn fast Diary Of Always lessons
        
↑ Back to top | Tablatures and chords for acoustic guitar and electric guitar, ukulele, drums are parodies/interpretations of the original songs. You may use it for private study, scholarship, research or language learning purposes only