» » »

Biffy Clyro - That Golden Rule Bass

Artists:  A B C D E F G H I J K L M N O P Q R S T U V W X Y Z # 

That Golden Rule Bass

(ver. 1) Click to play this song!
Biffy Clyro
 Rating:
4/5 (4 votes)

 That Golden Rule lessons Tabs too difficult? Try these video lessons and learn fast
 
                
Tuning: Drop C


INTRO (Repeat x2)
A|------------------------------------------------------------------|
C|------------------------------------------------------------------|
G|------------------------------------------------------------------|
C|--0--0-12-0-12---0--0-12-0-14-10--0--0-10-0-10---0--0-10-0-8p7p5--|

A|----------------------------------------------------------|
C|----------------------------------------------------------|
G|-------------------------------------3/7-3/7-3/7-3/7-3/7--|
C|--0--0-12-0-12---0--0-12-0-14-10--0-----------------------|



VERSE 1 (Repeat x2)
A|-----------------------------------------------------------|
C|-----------------------------------------------------------|
G|-----------------------------------------------------------|
C|--0--0-12-0-12---0--0-0--0--0-0--0-12-0-12---0--0-0--0--0--|

A|---------------------------------------------------|
C|------------------------------3---3--3---3---3--3--|
G|---------------------------------------------------|
C|--0--0-10-0-10---0--0-0--0--0----------------------|



PRE-CHORUS 1
A|-----------------------------------------------------|
C|-----------------------------------------------------|
G|--1---1--1--1--1--1--1-1-1-1---1--1--1--1--1--1-1-1--|
C|-----------------------------------------------------|

A|-----------------------------------------------------|
C|-----------------------------------------------------|
G|-----------------------------------------------------|
C|--0---0--0--0--0--0--0-0-0-3---3--3--3--3--3--3-3-3--|

A|-----------------------------------------------------|
C|-----------------------------------------------------|
G|--1---1--1--1--1--1--1-1-1-1---1--1--1--1--1--1-1-1--|
C|-----------------------------------------------------|

A|----------------------------------------------------|
C|----------------------------------------------------|
G|----------------------------------------------------|
C|--3---3--3--3--3--3--3-3-3-0---0--0--0--0--0--0--0--|


CHORUS 1 (Repeat x2)
A|--------------------------------------------------|
C|--------------------------------------------------|
G|--5~------3~------2~-----------3~--------8\-------|
C|----------------------------------------------3~--|


VERSE 2
(Repeat VERSE 1)


PRE-CHORUS 2
(Repeat PRE-CHORUS 1)


CHORUS 2
(Repeat CHORUS 1)

INTRUMENTAL/OUTRO
A|-----------------------------------|
C|-----------------------------------|
G|--5-5-5-5-5-5-5-5-5-5-5-5-5-5-5-5--|
C|-----------------------------------| Repeat this for quite a while.

A|--------------------------------|
C|--------------------------------|
G|--------------------------------|
C|--0--0--2-3--0--0--7-8--2-3--5--|Repeat x4

A|-------------------------------|
C|-------------------------------|
G|-------------------------------|
C|--5--5--5--5--5--5--5--5--5-5--|

A|-------------------------------------------------------|
C|-------------------------------------------------------|
G|-------------------------------------------------------|
C|--0--12--0--12--12-12-12-12-0--12--0--12--12-12-12-12--|

A|-------------------------------------------------------|
C|-------------------------------------------------------|
G|-------------------------------------------------------|
C|--0--10--0--10--10-10-10-10-0--10--0--10--10-10-10-10--|

A|-------------------------------------------------------|
C|-------------------------------------------------------|
G|-------------------------------------------------------|
C|--0--12--0--12--12-12-12-12-0--12--0--12--12-12-12-12--|

A|-------------------------------------------------------|
C|-------------------------------------------------------|
G|-------------------------------------------------------|
C|--0--10--0--10--10-10-10-10-0--10--0--10--10-10-10-10--|

A|-------------------------------------------------------|
C|-------------------------------------------------------|
G|-------------------------------------------------------|
C|--0--12--0--12--12-12-12-12-0--12--0--12--12-12-12-12--|

A|-------------------------------------------------------|
C|-------------------------------------------------------|
G|-------------------------------------------------------|
C|--0--10--0--10--10-10-10-10-0--10--0--10--10-10-10-10--|

A|-------------------------------------------|
C|-------------------------------------------|
G|-------------------------------------------|
C|--0--8--0--8--8-8-8-8-0--8--0--8--8-8-8-8--|

A|-------------------------------------------------------|
C|-------------------------------------------------------|
G|-------------------------------------------------------|
C|--0--10--0--10--10-10-10-10-0--10--0--10--10-10-10-10--|

VERY END BIT
A|-------------------------------------------|
C|-------------------------------------------|
G|-------------------------------------------|
C|--0-0-0-0---0-0-0-0-----0-0-0-0---0-0-0-0--|

A|-----------------------------------------------------------|
C|-----------------------------------------------------------|
G|-----------------------------------------------------------|
C|--10-10-10-10---10-10-10-10-----10-10-10-10---10-10-10-10--|

A|-------------------------------------------|
C|-------------------------------------------|
G|-------------------------------------------|
C|--8-8-8-8---8-8-8-8-----8-8-8-8---8-8-8-8--|

A|-----------------------------------------------------------|
C|-----------------------------------------------------------|
G|-----------------------------------------------------------|
C|--10-10-10-10---10-10-10-10-----10-10-10-10---10-10-10-10--|
            
Submit corrections


        That Golden Rule lessons Hard to play? Try these video lessons and learn fast That Golden Rule lessons
        
↑ Back to top | Tablatures and chords for acoustic guitar and electric guitar, ukulele, drums are parodies/interpretations of the original songs. You may use it for private study, scholarship, research or language learning purposes only