» » »

Biffy Clyro - That Golden Rule Bass

Artists:  A B C D E F G H I J K L M N O P Q R S T U V W X Y Z # 

That Golden Rule Bass

(ver. 2) Click to play this song!
Biffy Clyro
 Rating:
4/5 (4 votes)

 That Golden Rule lessons Tabs too difficult? Try these video lessons and learn fast
 
                Probably one of biffys most amazing song ever!!!!!! Its got very catchy
riffs all the way through the song. I think the bass part is in Drop C 
tuning... But if your like me who is very lazy and cant be bothered tuning
your bass from standard. heres the tab in Normal tuning :D Enjoy Peace
AJ 

Normal Tuning 
G|
D|
A|
E|


Intro
|------5---5------5--7-3-------3---3-------3--------|
|---------------------------------------------6-5-3-|
|-3--3---3---3--3---------3--3---3----3--3----------|
|---------------------------------------------------|

|------5---5------5--7-3------------------------|
|-----------------------------------------------|
|-3--3---3---3--3--------3--1/5-1/5-1/5-1/5-1/5-| x2 both riffs
|-----------------------------------------------|

Verse
|------5---5----------*3h5-----5---5-----------*3h5-|
|-------------------*5-----------------------*5-----|
|-3--3---3---3--3-3--3--3-3--3---3----3--3-3--3--3--|
|---------------------------------------------------|

|------3---3-----------*3h5---------------------|
|--------------------*5-------1--1--1--1--1--1--|
|-3--3---3----3--3-3--3--3----------------------| X2 both riffs
|-----------------------------------------------|

* = Optional 

Pre Chorus
|---------------------------------------------------------------------|
|-------------------------------------6-6-6-6-6-6-6-6-3-3-3-3-3-3-3-3-|
|-4-4-4-4-4-4-4-4-4-4-4-4-4-4-4-4-4-4---------------------------------|
|---------------------------------------------------------------------|

|---------------------------------------------------------------------|
|-------------------------------------3-3-3-3-3-3-3-3-6-6-6-6-6-6-6-6-|
|-4-4-4-4-4-4-4-4-4-4-4-4-4-4-4-4-4-4---------------------------------|
|---------------------------------------------------------------------|

Chprus
|---------------------------------------|
|----------------------------13\\-------|
|-3~------------------------------6~----| X2
|-------6~----5~--------6~--------------|

Verse
|------5---5----------*3h5-----5---5-----------*3h5-|
|-------------------*5-----------------------*5-----|
|-3--3---3---3--3-3--3--3-3--3---3----3--3-3--3--3--|
|---------------------------------------------------|

|------3---3-----------*3h5---------------------|
|--------------------*5-------1--1--1--1--1--1--|
|-3--3---3----3--3-3--3--3----------------------| X2 both riffs
|-----------------------------------------------|

* = Optional 

Pre Chorus
|---------------------------------------------------------------------|
|-------------------------------------6-6-6-6-6-6-6-6-3-3-3-3-3-3-3-3-|
|-4-4-4-4-4-4-4-4-4-4-4-4-4-4-4-4-4-4---------------------------------|
|---------------------------------------------------------------------|

|---------------------------------------------------------------------|
|-------------------------------------3-3-3-3-3-3-3-3-6-6-6-6-6-6-6-6-|
|-4-4-4-4-4-4-4-4-4-4-4-4-4-4-4-4-4-4---------------------------------|
|---------------------------------------------------------------------|

Chprus
|---------------------------------------|
|----------------------------13\\-------|
|-3~------------------------------6~----| X2
|-------6~----5~--------6~--------------|

Bridge
|-------------------------------------------------------------|
|-------------------------------------------------------------|
|-3-3-3-3-3-3-3-3-3-3-3-3-3-3-3-3-3-3-3-3-3-3-3-3-3-3-3-3-3-3-| repeat till
|-------------------------------------------------------------| Outro

Outro
|-------------------------------------|
|------------------------5-6-------3--|
|-3--3----5--6---3--3---------5-6-----| x4
|-------------------------------------|

|--------------------------------|
|--3--3--3--3--3--3--3--3--3--3--|
|--------------------------------|
|--------------------------------|

|----5---5--5-5-5-5----5---5--5-5-5-5--|
|--------------------------------------|
|-3----3------------3----3-------------|
|--------------------------------------|

|---3---3--3-3-3-3-----3---3--3-3-3-3--|
|--------------------------------------|
|-3---3-------------3----3-------------| last two riffs x3
|--------------------------------------|

|--------------------------------------|
|---6---6--6-6-6-6----6----6--6-6-6-6--|
|-3---3------------3-----3-------------|
|--------------------------------------|

|---3---3--3-3-3-3-----3---3--3-3-3-3--|
|--------------------------------------|
|-3---3-------------3----3-------------| 
|--------------------------------------|

|-------------------------------------------|
|-------------------------------------------|
|--3-3-3-3---3-3-3-3-----3-3-3-3---3-3-3-3--|
|-------------------------------------------|

|-------------------------------------------|
|-------------------------------------------|
|--1-1-1-1---1-1-1-1-----1-1-1-1---1-1-1-1--|
|-------------------------------------------|

|-------------------------------------------|
|--6-6-6-6---6-6-6-6-----6-6-6-6---6-6-6-6--|
|-------------------------------------------|
|-------------------------------------------|

|-------------------------------------------|
|-------------------------------------------|
|--1-1-1-1---1-1-1-1-----1-1-1-1---1-1-1-1--|
|-------------------------------------------|

And thats it... please rate and comment. if theres any bumb notes please 
comment :D peace ! 

AJ :P 
            
Submit corrections


        That Golden Rule lessons Hard to play? Try these video lessons and learn fast That Golden Rule lessons
        
↑ Back to top | Tablatures and chords for acoustic guitar and electric guitar, ukulele, drums are parodies/interpretations of the original songs. You may use it for private study, scholarship, research or language learning purposes only