» » »

Beethoven - Fur Elise Tabs

Artists:  A B C D E F G H I J K L M N O P Q R S T U V W X Y Z # 

Fur Elise Tabs

(ver. 3) Click to play this song!
Beethoven
 Rating:
4/5 (4 votes)

 Fur Elise lessons Tabs too difficult? Try these video lessons and learn fast
 
                Notes: This song is meant to be played on a guitar. This tab was transposed
to a different key to make it playable on the guitar. Any questions or comments,
please e-mail me. 


e  0------------0------------0-------------------------------| 
B  -------4------------4------------0-----3-----1------------| 
G  --------------------------------------------------------2-|
D  ----------------------------------------------------------|
A  ----------------------------------------------------------|
E  ----------------------------------------------------------| 

e ----------------------------------------------------|
B ---------------------0-------------------0-----1----|
G ---------------2-------------------1----------------|
D ---------2-------------------2----------------------|
A --3-------------------------------------------------|
E ----------------------------------------------------|


e  -------0------------0------------0---------------------------|
B  --------------4------------4-----------------1-----0---------|
G  ----------------------------------------------------------2--| 
D  2---------------------------------------0--------------------|
A  -------------------------------------------------------------| 
E  -------------------------------------------------------------|

e --------------------------------------------------|
B -----------------------0--------------------------|
G -----------------2--------------------------------|
D ----------2---------------------------------------|
A ---3----------------------------------------------|
E --------------------------------------------------|

e -------------------------------------0-| 
B --------------0-----1-----3------------|
G ---------------------------------------|
D ---------------------------------------| 
A ---------------------------------------| 
E ---------------------------------------| 


e ---------------------------------------------------|
B ------------------------0--------------------------|
G -------------------2-------------------------------|
D -----------2---------------------------------------|
A -----3---------------------------------------------|
E ---------------------------------------------------|



e  -------1-----0----------------------------------------| 
B  ---------------------3--------------------------0-----| 
G  5----------------------------------------2------------| 
D  -----------------------------------2------------------|
A  ----------------------------3-------------------------| 
E  ------------------------------------------------------|

e ----0--------------------------------------------------|
B ---------3-----1--------------------------0------------|
G -------------------------------------2-----------------|
D -3----------------------------2------------------------|
A -----------------------3-------------------------------|
E -------------------------------------------------------|


e  -------------------------------------------------------|
B  -------3-----1-----0-----------------------------0-----|
G  --------------------------------------------2----------|
D  3------------------------------------2-----------------|
A  --------------------------------3----------------------|
E  -------------------------------------------------------|

e -----------------------------------------| 
B -------------------0------------0-----0--| 
G -----------------------------------------| 
D -----------------------------------------| 
A ----2-----2------------2-----------------| 
E -----------------------------------------| 

e  0------------0------------0------------0------------0------------0--| 
B  -------4------------4------------4------------4------------4--------| 
G  --------------------------------------------------------------------| 
D  --------------------------------------------------------------------| 
A  --------------------------------------------------------------------| 
E  --------------------------------------------------------------------| 

e  ---------------------------------------------------------|
B  ---------------------0-------------------0-----1---------| 
G  --------------2-------------------1----------------------| 
D  -------2-------------------2--------------------------2--| 
A  3--------------------------------------------------------| 
E  ---------------------------------------------------------|

e ----0------------0------------0-----------------------|
B ----------4------------4------------0-----3-----1-----|
G ----------------------------------------------------2-|
D ------------------------------------------------------|
A ------------------------------------------------------|
E ------------------------------------------------------|

e  ---------------------------------------------------------|
B  ----------------------------0------------1-----0---------|
G  -------------------2---------------------------------2---| 
D  --------------2-------------------2----------------------|
A  -------3-------------------------------------------------|
E  ---------------------------------------------------------|
            
Submit corrections


        Fur Elise lessons Hard to play? Try these video lessons and learn fast Fur Elise lessons
        
↑ Back to top | Tablatures and chords for acoustic guitar and electric guitar, ukulele, drums are parodies/interpretations of the original songs. You may use it for private study, scholarship, research or language learning purposes only