» » »

Beck - *** In With My Head Tabs

Artists:  A B C D E F G H I J K L M N O P Q R S T U V W X Y Z # 

*** In With My Head Tabs

(ver. 2) Click to play this song!
Beck
 Rating:
4/5 (4 votes)

 *** In With My Head lessons Tabs too difficult? Try these video lessons and learn fast
 
                normal tunning
Intro/main riff
    E            Gm   Fm
e----------------3-3--1-1-------------------
h----------------3-3--1-1-------------------
G--1-1-1-1-1-1---3-3--1-1-------------------
D--2-2-2-2-2-2---4-4--3-3-------------------
A--2-2-2-2-2-2---4-4--3-3-------------------
E----------------3-3--1-1-------------------

Guitar2:
     Am
e---------0-----------------------------
h-----1h2---1---------------------------
G--2b-----------------------------------
D---------------------------------------
A---------------------------------------
E---------------------------------------

Chorus:
    A            
e-----------------------------------------|
h------------2----------2-----------------|
G---------2---------------2---------------|   2x
D------2-------------2--------------------|
A---0-------------0-----------------------|
E-----------------------------------------|




Part  1:45 to 2:20   and ending
           E    A    
e--------------0-0----------------------------------------
h---0-0-0-0-0--2b2----------------------------------------
G---1-1-1-1-1--2b2----------------------------------------
D---2-2-2-2-2--2b2----------------------------------------
A---2-2-2-2-2--0-0----------------------------------------
E---0-0-0-0-0---------------------------------------------
            
Submit corrections


        *** In With My Head lessons Hard to play? Try these video lessons and learn fast *** In With My Head lessons
        
↑ Back to top | Tablatures and chords for acoustic guitar and electric guitar, ukulele, drums are parodies/interpretations of the original songs. You may use it for private study, scholarship, research or language learning purposes only