» » »

Beck - *** In With My Head Tabs

Artists:  A B C D E F G H I J K L M N O P Q R S T U V W X Y Z # 

*** In With My Head Tabs

(ver. 1) Click to play this song!
Beck
 Rating:
4/5 (4 votes)

 *** In With My Head lessons Tabs too difficult? Try these video lessons and learn fast
 
                Beck
F*ckin With My Head


Main Riff                                    
    E              D      -  A               Fill in
E-------0-0---0----2-2(2)----0-0(0)----|     |-----------------------|
B-------0-0---0----3-3(3)----2-2(2)----|     |-----------------------|
G---1-1-1-1-1-1----2-2(2)----2-2(2)----|     |------------1/2--------|
D---2-2-2-2-2-2----0-0(0)----2-2(2)----|     |--1/2vvvv-0-----2vvvv--|
A---2-2-----2----------------0-0(0)----|     |-----------------------|
E---0-0-----0--------------------------|     |-----------------------|


Chorus   
E---------2-----------------------2----|
B-------3-------2-------------------3--|
G-----2-----------2--------0----2------|
D---0---------2----------0----0--------|
A-----------0----------2---------------|
E--------------------3-----------------|


Bridge
    E             A(s4)A G E           Fill in
E-------------------------------|      |--------------------|
B-----(0-0-0-0)---2/3--2-0-0----|      |--------------------|
G------1-1-1-1----2/2--2-0-1----|      |---1---2h3b-2-0-----|
D------1-1-1-1----2/2--2-0-1----|      |---1------------2---|
A------2-2-2-2-------------2----|      |---2----------------|
E---0-(0-0-0-0)-----------------|      |--------------------|
            
Submit corrections


        *** In With My Head lessons Hard to play? Try these video lessons and learn fast *** In With My Head lessons
        
↑ Back to top | Tablatures and chords for acoustic guitar and electric guitar, ukulele, drums are parodies/interpretations of the original songs. You may use it for private study, scholarship, research or language learning purposes only