» » »

Beck - Golden Age Tabs

Artists:  A B C D E F G H I J K L M N O P Q R S T U V W X Y Z # 

Golden Age Tabs

(ver. 1) Click to play this song!
Beck
 Rating:
4/5 (4 votes)

 Golden Age lessons Tabs too difficult? Try these video lessons and learn fast
 
                This is a cool song and is incredibly simple.

Solo
e  |-4-7-4-0---0------
B  |---------2-----0--
G  |-------------2---1
D  |------------------
A  |------------------
E  |------------------

Verse
e  |-0-0-0-0---2-2---0-0-
B  |-0-0-0-0---2-2---2-2-
G  |-1-1-1-1---2-2---2-2-
D  |-2-2-2-2---4-4---2-2-
A  |-2-2-2-2---------0-0-
E  |-0-0-0-0---------0-0-

Chorus
e  |-2-2---0-0---2-2---0-0-
B  |-3-3---2-2---2-2---2-2-
G  |-2-2---2-2---2-2---2-2-
D  |-0-0---2-2---4-4---2-2-
A  |-------0-0---------0-0-
E  |-------0-0---------0-0-

E            E                  F#m
    Put your hands on the wheel
            A                   E  E  F#m  A
    Let the golden age begin
E            E                  F#m
    Let the window down
            A                   E  E  F#m  A
    Feel the moonlight on your skin
E            E                  F#m
    Let the desert wind
            A                   E  E  F#m  A
    Cool your aching head
E            E                  F#m
    Let the weight of the world
            A                   E  E  F#m  A
    Drift away instead
D      A   F#m         A           E
Ooooooohh these days I barely get by
E    F#m  A   E  E  F#m A   
I don't even try

It's a treacherous road
With a desolated view
There's distant lights
But here they're far and few
The sun don't shine
Even when it's day
You got to drive all night
Just to feel like you're okay
Ohh these days I barely get by
I don't even try

I don't even try
I don't even try
            
Submit corrections


        Golden Age lessons Hard to play? Try these video lessons and learn fast Golden Age lessons
        
↑ Back to top | Tablatures and chords for acoustic guitar and electric guitar, ukulele, drums are parodies/interpretations of the original songs. You may use it for private study, scholarship, research or language learning purposes only