» » »

Beatles - No Reply Tabs

Artists:  A B C D E F G H I J K L M N O P Q R S T U V W X Y Z # 

No Reply Tabs

(ver. 3) Click to play this song!
Beatles
 Rating:
4/5 (4 votes)

 No Reply lessons Tabs too difficult? Try these video lessons and learn fast
 
                Gtr I (E A D G B E) - 'John Lennon - Acoustic Guitar'
Gtr II (E A D G B E) - 'George Harrison - Electric Guitar'


              1st - 3rd Verses
  Q=130
           $
               F                 G
 4/4
  Gtr I
  W            E E E E E E E E   E E E E E E E E
|----------||--1-1-1-1-1-1-1-1-|-3-3-3-3-3-3-3-3-|
|----------||o-1-1-1-1-1-1-1-1-|-3-3-3-3-3-3-3-3-|
|----------||--2-2-2-2-2-2-2-2-|-4-4-4-4-4-4-4-4-|
|----------||--3-3-3-3-3-3-3-3-|-5-5-5-5-5-5-5-5-|
|----------||o-3-3-3-3-3-3-3-3-|-5-5-5-5-5-5-5-5-|
|----------||--1-1-1-1-1-1-1-1-|-3-3-3-3-3-3-3-3-|


  C                                   F                 G
  E E E E E E E E   E E E E E E E E   E E E E E E E E   E E E E E E E E
|-0-0-0-0-0-0-0-0-|-0-0-0-0-0-0-0-0-|-1-1-1-1-1-1-1-1-|-3-3-3-3-3-3-3-3-|
|-1-1-1-1-1-1-1-1-|-1-1-1-1-1-1-1-1-|-1-1-1-1-1-1-1-1-|-3-3-3-3-3-3-3-3-|
|-0-0-0-0-0-0-0-0-|-0-0-0-0-0-0-0-0-|-2-2-2-2-2-2-2-2-|-4-4-4-4-4-4-4-4-|
|-2-2-2-2-2-2-2-2-|-2-2-2-2-2-2-2-2-|-3-3-3-3-3-3-3-3-|-5-5-5-5-5-5-5-5-|
|-3-3-3-3-3-3-3-3-|-3-3-3-3-3-3-3-3-|-3-3-3-3-3-3-3-3-|-5-5-5-5-5-5-5-5-|
|-----------------|-----------------|-1-1-1-1-1-1-1-1-|-3-3-3-3-3-3-3-3-|


  C                               Am                Em                Fmaj7
                                  Gtrs I, II
  E E E E E E E E   E E E E E E E E   +Q   Q  E E E E   +Q   Q  E E E E
|-0-0-0-0-0-0-0-0-|-0-0-0-0-0-0-0-0-|-(0)--0--0-0-0-0-|-(0)--0--0-0-0-0-|
|-1-1-1-1-1-1-1-1-|-1-1-1-1-1-1-1-1-|-(1)--1--1-1-1-0-|-(0)--0--0-0-0-1-|
|-0-0-0-0-0-0-0-0-|-0-0-0-0-0-0-0-2-|-(2)--2--2-2-2-0-|-(0)--0--0-0-0-2-|
|-2-2-2-2-2-2-2-2-|-2-2-2-2-2-2-2-2-|-(2)--2--2-2-2-2-|-(2)--2--2-2-2-3-|
|-3-3-3-3-3-3-3-3-|-3-3-3-3-3-3-3-0-|-(0)--0--0-0-0-2-|-(2)--2--2-2-2-3-|
|-----------------|---------------0-|-(0)--0--0-0-0-0-|-(0)--0--0-0-0---|


                Em                   Dm7               G
  +Q   Q  E E E E   +H     E E E E   E E E E E E E E   E E E E E E E E
|-(0)--0--0-0-0-0-|-(0)----0-0-0-0-|-1-1-1-1-1-1-1-1-|-3-3-3-3-3-3-3-3-|
|-(1)--1--1-1-1-0-|-(0)----0-0-0-0-|-1-1-1-1-1-1-1-1-|-0-0-0-0-0-0-0-0-|
|-(2)--2--2-2-2-0-|-(0)----0-0-0-0-|-2-2-2-2-2-2-2-2-|-0-0-0-0-0-0-0-0-|
|-(3)--3--3-3-3-2-|-(2)----2-2-2-2-|-0-0-0-0-0-0-0-0-|-0-0-0-0-0-0-0-0-|
|-(3)--3--3-3-3-2-|-(2)----2-2-2-2-|-0-0-0-0-0-0-0-0-|-2-2-2-2-2-2-2-2-|
|---------------0-|-(0)----0-0-0-0-|-----------------|-3-3-3-3-3-3-3-3-|


                                        Bridge
           To Coda
  C                                      C               E
                                         Gtr I
  E E E E E E E E    E E E E E E E E     Q  Q  E E E E   Q  Q  E E E E
|-0-0-0-0-0-0-0-0--|-0-0-0-0-0-0-0-0--||-0--0--0-0-0-0-|-0--0--0-0-0-0--|
|-1-1-1-1-1-1-1-1--|-1-1-1-1-1-1-1-1-o||-1--1--1-1-1-1-|-0--0--0-0-0-0--|
|-0-0-0-0-0-0-0-0--|-0-0-0-0-0-0-0-0--||-0--0--0-0-0-0-|-1--1--1-1-1-1--|
|-2-2-2-2-2-2-2-2--|-2-2-2-2-2-2-2-2--||-2--2--2-2-2-2-|-2--2--2-2-2-2--|
|-3-3-3-3-3-3-3-3--|-3-3-3-3-3-3-3-3-o||-3--3--3-3-3-3-|-2--2--2-2-2-2--|
|------------------|------------------||---------------|-0--0--0-0-0-0--|


  A                               Dm              F
  Q  Q  E E E E   Q  Q  E E E E   Q  Q  E E E E   E E E E E E E E
|-0--0--0-0-0-0-|-0--0--0-0-0-0-|-1--1--1-1-1-1-|-1-1-1-1-1-1-1-1-|
|-2--2--2-2-2-2-|-2--2--2-2-2-2-|-3--3--3-3-3-3-|-1-1-1-1-1-1-1-1-|
|-2--2--2-2-2-2-|-2--2--2-2-2-2-|-2--2--2-2-2-2-|-2-2-2-2-2-2-2-2-|
|-2--2--2-2-2-2-|-2--2--2-2-2-2-|-0--0--0-0-0-0-|-3-3-3-3-3-3-3-3-|
|-0--0--0-0-0-0-|-0--0--0-0-0-0-|-0--0--0-0-0-0-|-3-3-3-3-3-3-3-3-|
|---------------|---------------|---------------|-1-1-1-1-1-1-1-1-|


  C                                                     E
  E E E E E E E E   E E E E E E E E   E E E E E E E E   Q  Q  E E E E
|-0-0-0-0-0-0-0-0-|-0-0-0-0-0-0-0-0-|-0-0-0-0-0-0-0-0-|-0--0--0-0-0-0-|
|-1-1-1-1-1-1-1-1-|-1-1-1-1-1-1-1-1-|-1-1-1-1-1-1-1-1-|-0--0--0-0-0-0-|
|-0-0-0-0-0-0-0-0-|-0-0-0-0-0-0-0-0-|-0-0-0-0-0-0-0-0-|-1--1--1-1-1-1-|
|-2-2-2-2-2-2-2-2-|-2-2-2-2-2-2-2-2-|-2-2-2-2-2-2-2-2-|-2--2--2-2-2-2-|
|-3-3-3-3-3-3-3-3-|-3-3-3-3-3-3-3-3-|-3-3-3-3-3-3-3-3-|-2--2--2-2-2-2-|
|-----------------|-----------------|-----------------|-0--0--0-0-0-0-|


  A                               Dm              F
  Q  Q  E E E E   Q  Q  E E E E   Q  Q  E E E E   E E E E E E E E
|-0--0--0-0-0-0-|-0--0--0-0-0-0-|-1--1--1-1-1-1-|-1-1-1-1-1-1-1-1-|
|-2--2--2-2-2-2-|-2--2--2-2-2-2-|-3--3--3-3-3-3-|-1-1-1-1-1-1-1-1-|
|-2--2--2-2-2-2-|-2--2--2-2-2-2-|-2--2--2-2-2-2-|-2-2-2-2-2-2-2-2-|
|-2--2--2-2-2-2-|-2--2--2-2-2-2-|-0--0--0-0-0-0-|-3-3-3-3-3-3-3-3-|
|-0--0--0-0-0-0-|-0--0--0-0-0-0-|-0--0--0-0-0-0-|-3-3-3-3-3-3-3-3-|
|---------------|---------------|---------------|-1-1-1-1-1-1-1-1-|


                                       Outro
                        D.S. al Coda &
  C                                     C           E                 Em
                                        Gtrs I, II
  E E E E E E E E   E E E E E E E E     Q  Q  E E E E   +Q   Q  E E E E
|-0-0-0-0-0-0-0-0-|-0-0-0-0-0-0-0-0--||-0--0--0-0-0-0-|-(0)--0--0-0-0-0--|
|-1-1-1-1-1-1-1-1-|-1-1-1-1-1-1-1-1--||-1--1--1-1-1-1-|-(1)--1--1-1-1-0--|
|-0-0-0-0-0-0-0-0-|-0-0-0-0-0-0-0-0--||-0--0--0-0-0-2-|-(2)--2--2-2-2-0--|
|-2-2-2-2-2-2-2-2-|-2-2-2-2-2-2-2-2--||-2--2--2-2-2-2-|-(2)--2--2-2-2-2--|
|-3-3-3-3-3-3-3-3-|-3-3-3-3-3-3-3-3--||-3--3--3-3-3-0-|-(0)--0--0-0-0-2--|
|-----------------|------------------||-------------0-|-(0)--0--0-0-0-0--|


                Fmaj7             C6add9
  +Q   Q  E E E E   +Q   Q  E E E E   +W           +W
|-(0)--0--0-0-0-0-|-(0)--0--0-0-0---|------------|--------*|
|-(0)--0--0-0-0-1-|-(1)--1--1-1-1-3-|-(3)--------|-(3)----*|
|-(0)--0--0-0-0-2-|-(2)--2--2-2-2-2-|-(2)--------|-(2)----*|
|-(2)--2--2-2-2-3-|-(3)--3--3-3-3-2-|-(2)--------|-(2)----*|
|-(2)--2--2-2-2-3-|-(3)--3--3-3-3-3-|-(3)--------|-(3)----*|
|-(0)--0--0-0-0---|-----------------|------------|--------*|
            
Submit corrections


        No Reply lessons Hard to play? Try these video lessons and learn fast No Reply lessons
        
↑ Back to top | Tablatures and chords for acoustic guitar and electric guitar, ukulele, drums are parodies/interpretations of the original songs. You may use it for private study, scholarship, research or language learning purposes only