» » »

Beatles - No Reply Bass

Artists:  A B C D E F G H I J K L M N O P Q R S T U V W X Y Z # 

No Reply Bass

(ver. 1) Click to play this song!
Beatles
 Rating:
4/5 (5 votes)

 No Reply lessons Tabs too difficult? Try these video lessons and learn fast
 
                Gtr I (E A D G) - 'Paul McCartney - Bass'


              1st - 3rd Verses
  Q=130
           $
 4/4
  Gtr I
  W            H    H      H    H
|----------||-------5----|------7----|
|----------||o-3---------|-5---------|
|----------||o-----------|-----------|
|----------||------------|-----------|


  H    H      H    H      H    H      H    H
|-----------|-----------|------5----|------7----|
|------5----|------5----|-3---------|-5---------|
|-3---------|-3---------|-----------|-----------|
|-----------|-----------|-----------|-----------|


  H    H      H    Q.   E   +H     E E E E   +H     E E E E
|-----------|-------------|----------------|----------------|
|------5----|------5------|----------------|----------------|
|-3---------|-3---------0-|-(0)----0-0-0---|----------------|
|-----------|-------------|--------------0-|-(0)----0-0-0-1-|


  +H     E E E E   +H     H      H    H      H    H
|----------------|-------------|-----------|-0---------|
|----------------|-------------|-0----0----|------0----|
|----------------|-------------|-----------|-----------|
|-(1)----1-1-1-0-|-(0)----0----|-----------|-----------|


                           Bridge
  To Coda
  H    H      H    H        Q.   E H      Q.   E Q.   E
|-----------|------------||-------------|---------------|
|------5----|------5----o||--------5----|-------------7-|
|-3---------|-3---------o||-3----3------|-7----7-7------|
|-----------|------------||-------------|---------------|


  Q.   E E Q  E   Q.   E E Q  E   E Q  E E Q  E   E Q  E E Q  E
|-2----2-2-2--2-|-2----2-2-2--2-|---------------|---------------|
|---------------|---------------|-0-0--0-0-0--0-|-3-3--3-3-3--3-|
|---------------|---------------|---------------|---------------|
|---------------|---------------|---------------|---------------|


  Q.   E H      Q.   E H      Q.   E Q.   E   Q.   E Q.   E
|-------------|-------------|--------0----0-|-------------2-|
|--------5----|--------5----|---------------|-2----2-2------|
|-3----3------|-3----3------|-3----3--------|---------------|
|-------------|-------------|---------------|---------------|


  Q.   E E Q  E   Q.   E E Q  E   E Q  E E Q  E   E Q  E E E Q
|-2----2-2-2--2-|-2----2-2-2--2-|---------------|---------------|
|---------------|---------------|-0-0--0-0-0--0-|-3-3--3-3-3-3--|
|---------------|---------------|---------------|---------------|
|---------------|---------------|---------------|---------------|


                                Outro
                 D.S. al Coda &
  Q.   E Q  Q    Q.   E Q  Q     H    Q.   E   +H     E E E E
|--------------|--------------||-----------2-|-(2)----2-2-2---|
|--------5--5--|--------5-----||------5------|--------------2-|
|-3----3-------|-3----3----3--||-3-----------|----------------|
|--------------|--------------||-------------|----------------|


  +H     E E E E   H    E E E E   +W           +W
|----------------|--------------|------------|--------*|
|-(2)----2-2-2-3-|-3----3-3-3---|------------|--------*|
|----------------|------------3-|-(3)--------|-(3)----*|
|----------------|--------------|------------|--------*|

            
Submit corrections


        No Reply lessons Hard to play? Try these video lessons and learn fast No Reply lessons
        
↑ Back to top | Tablatures and chords for acoustic guitar and electric guitar, ukulele, drums are parodies/interpretations of the original songs. You may use it for private study, scholarship, research or language learning purposes only