» » »

Beatles - Let It Be Chords

Artists:  A B C D E F G H I J K L M N O P Q R S T U V W X Y Z # 

Let It Be Chords

(ver. 2) Click to play this song!
Beatles
 Rating:
4/5 (4 votes)

 Let It Be lessons Tabs too difficult? Try these video lessons and learn fast
 
                INTRO / VERSE / SOLO
  C       G        Am    Fmaj7 F6   C       G        F C/E G/D C
  1 + 2 + 3 + 4 +  1 + 2 + 3 + 4 +  1 + 2 + 3 + 4 +  1 + 2 + 3 + 4 +
e|0---0-----------|0---0-0-0-------|0---0-----------|1---0-----------|
B|1---1---0---0---|1---1-1-1---3---|1---1---0---0---|1---1-3-1-------|
G|0---0---0---0---|2---2-2-2---2---|0---0---0---0---|2---0-0-0-------|
D|2---2---0---0---|2-------3---3---|2---2---0---0---|3---2-0-2-------|
A|--3---3---------|--0-------------|--3---3---------|--------3-3-3-3-|
E|----------3---3-|----------1---1-|----------3---3-|----------------|

CHORUS
  Am      G6       Fmaj7   C        C       G        F C/E G/D C
  1 + 2 + 3 + 4 +  1 + 2 + 3 + 4 +  1 + 2 + 3 + 4 +  1 + 2 + 3 + 4 +
e|0---0---0---0---|0---0-----------|0---0-----------|1---0-----------|
B|1---1---0---0---|1---1---1---1---|1---1---0---0---|1---1-3-1-------|
G|2---2---0---0---|2---2---0---0---|0---0---0---0---|2---0-0-0-------|
D|2---2---2---2---|3---3---2---2---|2---2---0---0---|3---2-0-2-------|
A|0-0---0---------|3-------3-3---3-|--3---3---------|--------3-3-3-3-|
E|--------3-3---3-|1-1---1---------|----------3---3-|----------------|

LINK / CODA
       G/D     Am7                        G/D     Am7
 F   C/E  C C/Bb   G   F   C        F   C/E  C C/Bb   G   F   C
  1 + 2 + 3 + 4 +  1 + 2 + 3 + 4 +  1 + 2 + 3 + 4 +  1 + 2 + 3 + 4 +
e|1---0-----------|----------------|1---0-----------|----------------|
B|1---1-3-1-------|--------1-------|1---1-3-1-------|--------1-------|
G|2---0-0-0---0-0-|0-------0-------|2---0-2-0---0-0-|0-------0-------|
D|3---2-0-2---2-2-|0---3---2-------|3---2-0-2---2-2-|0---3---2-------|
A|--------3---1-0-|----3---3-------|------------1-0-|----3---3-------|
E|----------------|3---1-----------|----------------|3---1-----------|

---------------------------------------------------------------------------
SPECIAL VOICINGS

         E-A-D-G-B-e
VERSE 
Fmaj7    x-x-3-2-1-0 
F6       x-x-3-2-3-x
C/E      x-x-2-0-1-0
G/D      x-x-0-0-3-x

CHORUS 
Fmaj7 (t)1-x-3-2-1-0 
G6       3-x-2-0-0-0

LINK
C/Bb     x-1-2-0-x-x
Am7      x-0-2-0-x-x

LAST VERSE
Dm/A     x-0-2-2-3-1


---------------------------------------------------------------------------

INTRO
| C G | Am   Fmaj7 F6 | C G | F   C/E G/D | C |


VERSE
       C              G                Am          Fmaj7    F6
When I find myself in times of trouble mother Mary comes to me
C                 G            | F   C/E G/D | C |
Speaking words of wisdom let it be
    C             G               Am                Fmaj7    F6
And in my hour of darkness she is standing right in front of me
C                 G            | F   C/E G/D | C |
Speaking words of wisdom, let it be


CHORUS
       Am         G6         Fmaj7      C
Let it be, let it be, let it be, let it be
C                G            | F   C/E G/D | C |
Whisper words of wisdom, let it be


VERSE
    C               G              Am            Fmaj7  F6
And when the broken hearted people living in the world agree
C                G            | F   C/E G/D | C |
There will be an answer, let it be
    C                  G               Am             Am/G Fmaj7     F6
For though they may be parted there is still a chance that they will see
C                G            | F   C/E G/D | C |
There will be an answer, let it be


CHORUS
       Am         G6         Fmaj7      C
Let it be, let it be, let it be, let it be
C                G            | F   C/E G/D | C |
There will be an answer, let it be


CHORUS
       Am         G6         Fmaj7      C
Let it be, let it be, let it be, let it be
C                G            | F   C/E G/D | C |
Whisper words of wisdom, let it be


LINK
| F   C/E G/D | C   C/Bb Am7 | G F | C |
| F   C/E G/D | C   C/Bb Am7 | G F | C |


SOLO
| C G | Am   Fmaj7 F6 | C G | F   C/E G/D | C |
| C G | Am   Fmaj7 F6 | C G | F   C/E G/D | C |


CHORUS
       Am         G6         Fmaj7            C
Let it be, let it be, let it be, yeah, let it be
C                G            | F   C/E G/D | C |
Whisper words of wisdom, let it be


VERSE
    C                 G                Am                 Fmaj7     F6
And when the night is cloudy, there is still a light that shines on me
C             G            | F   C/E G/D | C |
Shine until tomorrow, let it be
  C              G              Dm/A   Am   Fmaj7    F6
I wake up to the sound of music mother Mary comes to me
C                 G            | F   C/E G/D | C |
Speaking words of wisdom, let it be


CHORUS
       Am         G6         Fmaj7            C
Let it be, let it be, let it be, yeah, let it be
C                G            | F   C/E G/D | C |
There will be an answer, let it be


CHORUS
       Am         G6         Fmaj7            C
Let it be, let it be, let it be, yeah, let it be
C                G            | F   C/E G/D | C |
There will be an answer, let it be


CHORUS
       Am         G6         Fmaj7            C
Let it be, let it be, let it be, yeah, let it be
C                G            | F   C/E G/D | C |
Whisper words of wisdom, let it be


CODA
| F   C/E G/D | C   C/Bb Am7 | G F | C 

            
Submit corrections


        Let It Be lessons Hard to play? Try these video lessons and learn fast Let It Be lessons
        
↑ Back to top | Tablatures and chords for acoustic guitar and electric guitar, ukulele, drums are parodies/interpretations of the original songs. You may use it for private study, scholarship, research or language learning purposes only