» » »

Beatles - Let It Be Tabs

Artists:  A B C D E F G H I J K L M N O P Q R S T U V W X Y Z # 

Let It Be Tabs

(ver. 1) Click to play this song!
Beatles
 Rating:
3.1/5 (7 votes)


 Let It Be lessons Tabs too difficult? Try these video lessons and learn fast
 
                

C G Am F C G F Em Dm C

        C             G                 Am          F
When I find myself in times of trouble, Mother Mary comes to me
   C               G             F Em Dm C
Speaking words of wisdom, let it be
    C             G                  Am                F
And in my hour of darkness, She is standing right in front of me
    C             G              F Em Dm C
Speaking words of wisdom, Let it be
       Am         G          F          C
Let it be, let it be, let it be, let it be
 C                G              F Em Dm C
Whisper words of wisdom, let it be
    C                G              Am            F
And when the broken hearted people, Living in the world agree
C                G              F Em Dm C 
There will be an answer, let it be
    C                 G                 Am                 F  
But though they may be parted, There is still a chance that they may see
C               G               F Em Dm C
There will be an answer, let it be
       Am          G           F         C
Let it be, let it be, let it be, let it be
       C                G              F Em Dm C
Yeah, there will be an answer, let it be
       Am         G          F           C
Let it be, let it be, let it be, let it be
C                G               F Em Dm C
Whisper words of wisdom, let it be

E|-5-3-1-0------------------|
B|-6-5-3-1-3-1-0------------|
G|---------4-2-0-2-0--------|
D|---------------3-2--------|
A|--------------------------|
E|--------------------------|


Solo:

E|---------------------------------------------------------------------------------|
B|-----------------------------------------------------------------8-8b(r)---------|
G|-------------------------------------------------------------5-7---------7b(r)---|
D|-------------------------------5-7hb5--------------5-5---5-7---------------------|
A|-----3-5-5b-3-5-5------3h5-5/7--------7hb5-3-----7-----7-------------------------|
E|-3h5---------------3h5-----------------------------------------------------------|

E|---------------------------------------------------------------------------------|
B|---------------------------------------------------------------8-10r8------------|
G|-5--7b-5-----------------------------------7/9-7-5h7-------7/9--------9r7-5------|
D|---------7-5-------------------------3h5r3-----------7-5h7-----------------------|
A|--------------7-5b-3-----------3h5r3---------------------------------------------|
E|---------------------------3/5---------------------------------------------------|

E|---------------------10b(r)-10-8-------------------------------------------------|
B|-----------10-10r8---------------10-8---10r8-------------------------------------|
G|-----5h7/9---------9------------------9------9r7-5h7r5---------------------------|
D|-5h7-----------------------------------------------------------------------------|
A|---------------------------------------------------------------------------------|
E|---------------------------------------------------------------------------------|

       Am         G           F         C
Let it be, let it be, let it be, let it be
C                 G              F Em Dm C
Whisper words of wisdom, let it be
    C                 G
And when the night is cloudy, 
          F                  C
There is still a light that shines on me
 C                G             F Em Dm C
Shine on till tomorrow, let it be
    C              G             G            C
I wake up to the sound of music, Mother Mary comes to me
    C              G              F Em Dm C
Speaking words of wisdom, let it be

Let it be, let it be......
            
Submit corrections



        Let It Be lessons Hard to play? Try these video lessons and learn fast Let It Be lessons
        
↑ Back to top | Tablatures and chords for acoustic guitar and electric guitar, ukulele, drums are parodies/interpretations of the original songs. You may use it for private study, scholarship, research or language learning purposes only